Incubus - When It Comes Chords & Tabs

 

When It Comes Chords & Tabs

Incubus Chords & Tabs

Version: 4 Type: Tab 0 ratings
1 star 2 stars 3 stars 4 stars 5 stars
comments

When It Comes Tab

-------------------------------------------------------------------------------
			     WHEN IT COMES - Incubus
-------------------------------------------------------------------------------

Tabbed by : Marc Salmon
Email     : smug@hotmail.co.uk

Tuning    : Standard

=====
INTRO
=====


e|-------------------------------------------|
B|-------------------------------------------|
G|-------------------------------------------|
D|-------------------------------------------|
A|--5-3-2-3-2h3p2p0-2-2--2-2-0--h2-2-2-2-3-3-|
E|-------------------------------------------| X4


=======
VERSE 1
=======


e|---------------|
B|---------------|
G|--4------------|
D|--4------------|
A|----2-2-0-2-2--|
E|---------------| X8 (2nd Verse = X4)


e|---------------------------------|
B|-------------0-------------------|
G|-------------4-------------------|
D|---4---------2---4---------4-4---|
A|-----2-2-2-2-3-----2-2-2-2-2-2---|
E|---------------------------3-0---| X4


======
CHORUS
======


e|---------|
B|---------|
G|---------|
D|--4-4-4--|
A|--2-4-4--|
E|--0-2-2--|

[ Tab from: http://www.guitartabs.cc/tabs/i/incubus/when_it_comes_tab_ver_4.html ]
e|-----------------------------------|
B|-----------------------------------|
G|--7-7-4-4-2-x-4----7-7-4-4-2-x-----|
D|--7-7-4-4-2-x-2----7-7-4-4-2-x-4---|
A|--5-5-2-2-0-x-2----5-5-2-2-0-x-4---|
E|--5-5-2-2-----2----5-5-2-2-----2---| X2


e|-------------------------------------------|
B|-------------------------------------------|
G|--7-7-4-4-2-x-4----7-7-4-4-2---------------|
D|--7-7-4-4-2-x-2----7-7-4-4-2---------------|
A|--5-5-2-2-0-x-2----5-5-2-2-0---------------|
E|--5-5-2-2-----2----5-5-2-2-----------------|


e|------------------0------------------0-----|
B|-----------------0------------------0------|
G|--6-6---------2-2----6-6---------2-2-------|
D|--6-6-5-5-7-7-2------6-6-5-5-7-7-2------5--|
A|--4-4-5-5-7-7-x------4-4-5-5-7-7-x------5--|
E|--4-4-3-3-5-5-2------4-4-3-3-5-5-2------3--|


e|-----------------|
B|-----------------|
G|------6-6-4-4----|
D|--7-7-6-6-4-4-4--|
A|--7-7-4-4-2-2-4--|
E|--5-5-4-4-2-2-2--|


=====
OUTRO
=====


e|-------------------------------------------|
B|-------------------------------------------|
G|-------------------------------------------|
D|-------------------------------------------|
A|--5-3-2-3-2h3p2p0-2-2--2-2-0--h2-2-2-2-3-3-|
E|-------------------------------------------| X4


e|-------------------------------------------|
B|-------------------------------------------|
G|--4---4-4--4-4--4-4--4-4-4-4--5-5----------|
D|--4---4-4--4-4--4-4--4-4-4-4--5-5----------|
A|----2-2-2--0-2--0-2--2-2-2-2--3-3----------|
E|-------------------------------------------| X8
Comments