Incubus - Warning Chords & Tabs

 

Warning Chords & Tabs

Incubus Chords & Tabs

Version: 3 Type: Tab 0 ratings
1 star 2 stars 3 stars 4 stars 5 stars
comments

Warning Tab

#-----------------------------------------------------------------------------#
#-- File created with Instab - http://www.pconline.com/~smcarey/instab.html --#
#-----------------------------------------------------------------------------#

Author/Artist: incubus
Title: warning
Transcribed by: Saverain
Email: saverain@hotmail.com

v strum down 
^ strum up
p.m.  palm mute
you'll have to find the lyrics somewhere else. I are not to good words
This is a really cool song I hope they stick around.

-|-------------------------------------|----------------------------|-----|---
-|-------------------------------------|----------------------------|-----|---
-|-8----6-6--8----6-6--8----6-6--4--3--|----------------------------|-----|---
-|-9----7-7--9----7-7--9----7-7--5--4--|----------------------------|-2-2-|---
-|-6----4-4--6----4-4--6----4-4--2--1--|-2-5-5-5-5-5--2-2-5-5-5-5-5-|-2-2-|---
-|-7---------7---------7---------3--2--|-0-3-3-3-3-3--0-0-3-3-3-3-3-|-0-0-|---
  intro v v  v    v v  v    v v  v  vpre chor p.m.    v v v v v v             
[ Tab from: http://www.guitartabs.cc/tabs/i/incubus/warning_tab_ver_3.html ]
-|----------------------------|----|------------------------------------------
-|----------------------------|----|------------------------------------------
-|-4--4-4-4--4-4-6-6--6-6-6-6-|----|-4--4-4-4--4-4-6-6--6-6-6-6--4--4-4-4--4--
-|-4--4-4-4--4-4-x-x--x-x-x-x-|-3x-|-4--4-4-4--4-4-7-7--7-7-7-7--5--5-5-5--5--
-|-2--2-2-2--2-2-4-4--4-4-4-4-|----|-2--2-2-2--2-2-4-4--4-4-4-4--2--2-2-2--2--
-|--------2--2-2-5-5--5-5-5-5-|----|--------2--2-2-5-5--5-5-5-5--3--3-3-3--3--
  chorus                             v  v ^ v  v ^ ^ v  v ^ v ^ continue      

----------------|------------------------|----------|--------|-----------|----
----------------|------------------------|----------|--------|-----------|----
-4-3-3--3-3-3-3-|-8--6--8--6--8--6--4--3-|----------|--------|-----------|-8--
-5-4-4--4-4-4-4-|-9--7--9--7--9--7--5--4-|----------|--------|-----------|-9--
-2-1-1--1-1-1-1-|-6--4--6--4--6--4--2--1-|----------|--------|-----------|-6--
-3-2-2--2-2-2-2-|-7--5--7--5--7--5--3--2-|----------|--------|-----------|-7--
                  verse v  v  v  v  v  v  pre chorus chorus   pre chorus   v  

-------------------------|---------------|------------------------------------
-------------------------|-16------------|------------------------------------
---6--8----6--8----6--3--|------16-15-16-|------------------------------------
---7--9----7--9----7--4--|---------------|------------------------------------
---4--6----4--6----4--1--|---------------|------------------------------------
---5--7----5--7----5--2--|---------------|------------------------------------
   v  v    v  v    v  v     chorus/outro                                      

Comments