Incubus - Warning Chords & Tabs

 

Warning Chords & Tabs

Incubus Chords & Tabs

Version: 10 Type: Tab 0 ratings
1 star 2 stars 3 stars 4 stars 5 stars
comments

Warning Tab

This is out of the morning view book, so it is right.

Riff 1
|------------------------------------------
|-4-----------------------4----------------
|-4-----------------6-----4--------------6-
|-4-----------------7-----4--------------7-
|-2-----------------7-----2--------------7-
|-2-----------------5-----2--------------5-
 Bat your eyes girl.  Be other worldly.

|-------------------------------------------
|--4-----------------------------------2----
|--4------------------6-----4----------3----
|--4------------------7-----5----------4----
|--2------------------7-----5----------4----
|--2------------------5-----3----------2----
 Count your blessings.   Seduce a stranger.

repeat sequence with lyrics:  What's so wrong with, being happy.  Kudos to those 
who, see through sickness yeah.

Riff 2
|--------------------------------------------------------
|--------------------------------------------------------
|--------------------------------------------------------
|--------------------------------------------------------
|-4-4-4-4-4-4-2-2--4-4-4-4-4-4-2-2--4-4-4-4-4-4-2-2------
|-2-2-2-2-2-2-0-0--2-2-2-2-2-2-0-0--2-2-2-2-2-2-0-0------
                Over and over and over and over and ooh  

|-----------------
|-----------------
|-----------------
|-----------------
|-4-4-4-4-4-4-2-2-
|-2-2-2-2-2-2-0-0-
[ Tab from: http://www.guitartabs.cc/tabs/i/incubus/warning_tab_ver_10.html ]
Riff 3
|--------------------------------
|-2--2-2-2--2-2----2-2-----------
|-4--4-4-4--4-4----4-4-6---6-6-6-
|-4--4-4-4--4-4----4-4-7---7-7-7-
|-2--2-2-2--2-2----2-2-7---7-7-7-
|-2--2-2-2--2-2----2-2-5---5-5-5- (x2)
        When she woke in the morning

|----------------------------------------------------------
|-2--2-2-2--2-2----2-2-------------------------------------
|-4--4-4-4--4-4----4-4-6---6-6-6--4---4-4-4---4-4-4-3-3-3-3
|-4--4-4-4--4-4----4-4-7---7-7-7--5---5-5-5---5-5-5-4-4-4-4
|-2--2-2-2--2-2----2-2-7---7-7-7--5---5-5-5---5-5-5-4-4-4-4
|-2--2-2-2--2-2----2-2-5---5-5-5--3---3-3-3---3-3-3-2-2-2-2
         she knew  that her life had         passed her  by

-------
-------
-3-3-3-
-4-4-4-
-4-4-4-
-2-2-2-

repeat riff 3, lyrics: and she called out a warning; "don't ever let life pass you by"

riff 3 (just first line x3)
riff 1
riff 2
riff 3
riff 2
riff 1
riff 3

Extras:
This is included in the book as "guitar 2", although there is no guitar to in incubus, 
but here it is if you want it.

comes in after "all float face down"

|------------------------------11----------11----------10----10----
|-4----2/4----2/4----2---0--------12----12----12----12----12--14-
|------------------------------------15----------15----------------
|------------------------------------------------------------------
|------------------------------------------------------------------
|------------------------------------------------------------------

outro (guitar 2 oh no, guitar 3?!)

|-11-----------11-----------11-----------11-------------
|----12----12-----12----12-----12----12-----12-------12-
|-------15-----------15-----------15-----------15-15----
|-------------------------------------------------------
|-------------------------------------------------------
|-------------------------------------------------------
Comments