Incubus - Warning Chords & Tabs

 

Warning Chords & Tabs

Incubus Chords & Tabs

Version: 1 Type: Tab 0 ratings
1 star 2 stars 3 stars 4 stars 5 stars
comments

Warning Tab

   
Song title: Warning
Artist: Incubus
Album: Morning View
Tabbed by: Matt Blackman
E-Mail: TERMIE40000@cs.com

This is a pretty easy and incredible song, I tabbed it with just power chords. Mike uses some sort of faded distortion pedal, but any way sounds great!

Standard Tuning (E-A-D-B-G-e)

First Verse
|------------------|------------------|------------------|
|------------------|------------------|------------------|
|------------------|------------------|------------------|
|---9----7--9------|-----7--9---------|---7--5----4------|
|---9----7--9------|-----7--9---------|---7--5----4------|
|---7----5--7------|-----5--7---------|---5--3----2------|

|------------------|------------------|------------------|
|------------------|------------------|------------------|
|------------------|------------------|------------------|
|---9----7--9------|-----7--9---------|---7--2----4------|
|---9----7--9------|-----7--9---------|---7--2----4------|
|---7----5--7------|-----5--7---------|---5--0----2------|

Pre chorus
|------------------|------------------|------------------|
|------------------|------------------|------------------|
|------------------|------------------|------------------|
|---4-4-4-4--------|---2-2-4-4-4-4----|---2-2-4-4-4-4----|
|---4-4-4-4--------|---2-2-4-4-4-4----|---2-2-4-4-4-4----|
|---2-2-2-2--------|---0-0-2-2-2-2----|---0-0-2-2-2-2----|


|------------------|------------------|------------------|
|------------------|------------------|------------------|
|------------------|------------------|------------------|
|---2-2-4-4-4-4----|------------------|------------------|
|---2-2-4-4-4-4----|------------------|------------------|
|---0-0-2-2-2-2----|------------------|------------------|

Chorus Part One
|------------------|------------------|------------------|
|------------------|------------------|------------------|
|------------------|------------------|------------------|
|--2-2-9-999-99-99-|--777-9-999-99-99-|-7777-9-999-99-99-|
|--2-2-9-999—99-99-|--777-9-999-99-99-|-7777-9-999-99-99-|
|--0-0-7-777-77-77-|--555-7-777-77-77-|-5555-7-777-77-77-|

|------------------|------------------|------------------|
|------------------|------------------|------------------|
|------------------|------------------|------------------|
|--777-5-555-55-55-|--4-4-4---4-------|------------------|
|--777-5-555-55-55-|--4-4-4---4-------|------------------|
|--555-3-333-33-33-|--2-2-2---2-------|------------------|
Chorus Part Two
|------------------|------------------|------------------|
|------------------|------------------|------------------|
|------------------|------------------|------------------|
|--9-999-99-99-----|--777-9-999-99-99-|-7777-9-999-99-99-|
|--9-999—99-99-----|--777-9-999-99-99-|-7777-9-999-99-99-|
|--7-777-77-77-----|--555-7-777-77-77-|-5555-7-777-77-77-|

|------------------|------------------|------------------|
|------------------|------------------|------------------|
|------------------|------------------|------------------|
|--777-2-222-22-22-|--4444-44---------|------------------|
|--777-2-222-22-22-|--4444-44---------|------------------|
|--555-0-000-00-00-|--2222-22---------|------------------|

Pre-Second Verse
|------------------|------------------|------------------|
|------------------|------------------|------------------|
|------------------|------------------|------------------|
|--9-999-99-99-----|--777-9-999-99-99-|-7777-9-999-99-99-|
|--9-999—99-99-----|--777-9-999-99-99-|-7777-9-999-99-99-|
|--7-777-77-77-----|--555-7-777-77-77-|-5555-7-777-77-77-|

|------------------|------------------|------------------|
|------------------|------------------|------------------|
|------------------|------------------|------------------|
|--777-9-999-99-99-|--777-------------|------------------|
|--777-9-999—99-99-|--777-------------|------------------|
|--555-7-777-77-77-|--555-------------|------------------|

Second Verse
|------------------|------------------|------------------|
|------------------|------------------|------------------|
|------------------|------------------|------------------|
|---9----7--9------|-----7--9---------|---7--5----4------|
|---9----7--9------|-----7--9---------|---7--5----4------|
|---7----5--7------|-----5--7---------|---5--3----2------|

|------------------|------------------|------------------|
|------------------|------------------|------------------|
|------------------|------------------|------------------|
|---9----7--9------|-----7--9---------|---7--2----4------|
|---9----7--9------|-----7--9---------|---7--2----4------|
|---7----5--7------|-----5--7---------|---5--0----2------|

Pre chorus
|------------------|------------------|------------------|
|------------------|------------------|------------------|
|------------------|------------------|------------------|
|---4-4-4-4--------|---2-2-4-4-4-4----|---2-2-4-4-4-4----|
|---4-4-4-4--------|---2-2-4-4-4-4----|---2-2-4-4-4-4----|
|---2-2-2-2--------|---0-0-2-2-2-2----|---0-0-2-2-2-2----|

|------------------|------------------|------------------|
|------------------|------------------|------------------|
|------------------|------------------|------------------|
|---2-2-4-4-4-4----|---2-2-4-4-4-4----|------------------|
|---2-2-4-4-4-4----|---2-2-4-4-4-4----|------------------|
|---0-0-2-2-2-2----|---0-0-2-2-2-2----|------------------|

Chorus Part One
|------------------|------------------|------------------|
|------------------|------------------|------------------|
|------------------|------------------|------------------|
|--2-2-9-999-99-99-|--777-9-999-99-99-|-7777-9-999-99-99-|
|--2-2-9-999—99-99-|--777-9-999-99-99-|-7777-9-999-99-99-|
|--0-0-7-777-77-77-|--555-7-777-77-77-|-5555-7-777-77-77-|

|------------------|------------------|------------------|
|------------------|------------------|------------------|
|------------------|------------------|------------------|
|--777-5-555-55-55-|--4-4-4---4-------|------------------|
|--777-5-555-55-55-|--4-4-4---4-------|------------------|
|--555-3-333-33-33-|--2-2-2---2-------|------------------|

Chorus Part Two
|------------------|------------------|------------------|
|------------------|------------------|------------------|
|------------------|------------------|------------------|
|--9-999-99-99-----|--777-9-999-99-99-|-7777-9-999-99-99-|
|--9-999—99-99-----|--777-9-999-99-99-|-7777-9-999-99-99-|
|--7-777-77-77-----|--555-7-777-77-77-|-5555-7-777-77-77-|

|------------------|------------------|------------------|
|------------------|------------------|------------------|
|------------------|------------------|------------------|
|--777-2-222-22-22-|--4444-44---------|------------------|
|--777-2-222-22-22-|--4444-44---------|------------------|
|--555-0-000-00-00-|--2222-22---------|------------------|
[ Tab from: http://www.guitartabs.cc/tabs/i/incubus/warning_tab.html ]
Fill
|------------------|------------------|------------------|
|------------------|------------------|------------------|
|------------------|------------------|------------------|
|---4-4-4-4--------|---2-2-4-4-4-4----|---2-2-4-4-4-4----|
|---4-4-4-4--------|---2-2-4-4-4-4----|---2-2-4-4-4-4----|
|---2-2-2-2--------|---0-0-2-2-2-2----|---0-0-2-2-2-2----|

|------------------|------------------|------------------|
|------------------|------------------|------------------|
|------------------|------------------|------------------|
|---2-2-4-4-4-4----|---2-2-4-4-4-4----|---2-2-4-4-4-4----|
|---2-2-4-4-4-4----|---2-2-4-4-4-4----|---2-2-4-4-4-4----|
|---0-0-2-2-2-2----|---0-0-2-2-2-2----|---0-0-2-2-2-2----|

|------------------|------------------|------------------|
|------------------|------------------|------------------|
|------------------|------------------|------------------|
|---2-2-4-4-4-4----|---2-2-4-4-4-4----|---2-2-4-4-4-4----|
|---2-2-4-4-4-4----|---2-2-4-4-4-4----|---2-2-4-4-4-4----|
|---0-0-2-2-2-2----|---0-0-2-2-2-2----|---0-0-2-2-2-2----|
|------------------|------------------|------------------|
|------------------|------------------|------------------|
|------------------|------------------|------------------|
|---2-2-4-4-4-4----|---2-2-4-4-4-4----|---2-2-4-4-4-4----|
|---2-2-4-4-4-4----|---2-2-4-4-4-4----|---2-2-4-4-4-4----|
|---0-0-2-2-2-2----|---0-0-2-2-2-2----|---0-0-2-2-2-2----|

Pre Chorus
|------------------|------------------|------------------|
|------------------|------------------|------------------|
|------------------|------------------|------------------|
|--2-2-9----7--9---|-----7--9---------|---7--5-----------|
|--2-2-9----7--9---|-----7--9---------|---7--5-----------|
|--0-0-7----5--7---|-----5--7---------|---5--3-----------|

Chorus Part One
|------------------|------------------|------------------|
|------------------|------------------|------------------|
|------------------|------------------|------------------|
|---9-999-99-99----|--777-9-999-99-99-|-7777-9-999-99-99-|
|---9-999—99-99----|--777-9-999-99-99-|-7777-9-999-99-99-|
|---7-777-77-77----|--555-7-777-77-77-|-5555-7-777-77-77-|

|------------------|------------------|------------------|
|------------------|------------------|------------------|
|------------------|------------------|------------------|
|--777-5-555-55-55-|--4444--44--------|------------------|
|--777-5-555-55-55-|--4444--44--------|------------------|
|--555-3-333-33-33-|--2222--22--------|------------------|

Chorus Part Two
|------------------|------------------|------------------|
|------------------|------------------|------------------|
|------------------|------------------|------------------|
|--9-999-99-99-----|--777-9-999-99-99-|-7777-9-999-99-99-|
|--9-999—99-99-----|--777-9-999-99-99-|-7777-9-999-99-99-|
|--7-777-77-77-----|--555-7-777-77-77-|-5555-7-777-77-77-|

|------------------|------------------|------------------|
|------------------|------------------|------------------|
|------------------|------------------|------------------|
|--777-2-222-22-22-|--4444-44---------|------------------|
|--777-2-222-22-22-|--4444-44---------|------------------|
|--555-0-000-00-00-|--2222-22---------|------------------|

Chorus Part Three
|------------------|------------------|------------------|
|------------------|------------------|------------------|
|------------------|------------------|------------------|
|--9-999-99-99-----|--777-9-999-99-99-|-7777-9-999-99-99-|
|--9-999—99-99-----|--777-9-999-99-99-|-7777-9-999-99-99-|
|--7-777-77-77-----|--555-7-777-77-77-|-5555-7-777-77-77-|

|------------------|------------------|------------------|
|------------------|------------------|------------------|
|------------------|------------------|------------------|
|--777-2-222-22-22-|--4444-44---------|------------------|
|--777-2-222-22-22-|--4444-44---------|------------------|
|--555-0-000-00-00-|--2222-22---------|------------------|

Ending Part One
|------------------|------------------|------------------|
|------------------|------------------|------------------|
|------------------|------------------|------------------|
|--2-2-9-999-99-99-|--777-9-999-99-99-|-7777-9-999-99-99-|
|--2-2-9-999—99-99-|--777-9-999-99-99-|-7777-9-999-99-99-|
|--0-0-7-777-77-77-|--555-7-777-77-77-|-5555-7-777-77-77-|

|------------------|------------------|------------------|
|------------------|------------------|------------------|
|------------------|------------------|------------------|
|--777-5-555-55-55-|--4-4-4---4-------|------------------|
|--777-5-555-55-55-|--4-4-4---4-------|------------------|
|--555-3-333-33-33-|--2-2-2---2-------|------------------|
Ending Part Two
|------------------|------------------|------------------|
|------------------|------------------|------------------|
|------------------|------------------|------------------|
|--9-999-99-99-----|--777-9-999-99-99-|-7777-9-999-99-99-|
|--9-999—99-99-----|--777-9-999-99-99-|-7777-9-999-99-99-|
|--7-777-77-77-----|--555-7-777-77-77-|-5555-7-777-77-77-|

|------------------|------------------|------------------|
|------------------|------------------|------------------|
|------------------|------------------|------------------|
|--777-2-222-22-22-|--4444-44---------|------------------|
|--777-2-222-22-22-|--4444-44---------|------------------|
|--555-0-000-00-00-|--2222-22---------|------------------|

Ending Part Three
|------------------|------------------|------------------|
|------------------|------------------|------------------|
|------------------|------------------|------------------|
|--2-2-9-999-99-99-|--777-9-999-99-99-|-7777-9-999-99-99-|
|--2-2-9-999—99-99-|--777-9-999-99-99-|-7777-9-999-99-99-|
|--0-0-7-777-77-77-|--555-7-777-77-77-|-5555-7-777-77-77-|

|------------------|------------------|------------------|
|------------------|------------------|------------------|
|------------------|------------------|------------------|
|--777-5-555-55-55-|--4-4-4---4-------|------------------|
|--777-5-555-55-55-|--4-4-4---4-------|------------------|
|--555-3-333-33-33-|--2-2-2---2-------|------------------|

Ending Part Four
|------------------|------------------|------------------|
|------------------|------------------|------------------|
|------------------|------------------|------------------|
|--9-999-99-99-----|--777-9-999-99-99-|-7777-9-999-99-99-|
|--9-999—99-99-----|--777-9-999-99-99-|-7777-9-999-99-99-|
|--7-777-77-77-----|--555-7-777-77-77-|-5555-7-777-77-77-|

|------------------|------------------|------------------|
|------------------|------------------|------------------|
|------------------|------------------|------------------|
|--777-2-222-22-22-|--4444-44---------|-------9----------|
|--777-2-222-22-22-|--4444-44---------|-------9----------|
|--555-0-000-00-00-|--2222-22---------|-------7----------|
Comments