Incubus - Warmth Chords & Tabs

 

Warmth Chords & Tabs

Incubus Chords & Tabs

Version: 3 Type: Tab 0 ratings
1 star 2 stars 3 stars 4 stars 5 stars
comments

Warmth Tab

   
/ is slide to next marked fret

The Intro is exactly this repeat as many time as they do it
E-|-------------------------------19-----|
B-|-20/19-17-15-17-15-17-15--------------|
G-|-------------------------17/16--------|
D-|--------------------------------------|
A-|--------------------------------------|
E-|--------------------------------------|

[ Tab from: http://www.guitartabs.cc/tabs/i/incubus/warmth_tab_ver_3.html ]
and the other part where it is hard is
repeat this many times too
E-|---------------------------------------|
B-|---------------------------------------|
G-|-9-99-99-------------------------------|
D-|-9-99-99--10-1010-10--5-55-55--2-22-22-|
A-|-7-77-77--10-1010-10--5-55-55--2-22-22-|
E-|-----------8--8-8--8--3-33-33--0-00-00-|

anyone can add the remaining parts to this song if they want to or can.

N/a on a sweatjacket
Comments