Incubus - Vitamin Chords & Tabs

 

Vitamin Chords & Tabs

Incubus Chords & Tabs

Version: 1 Type: Tab 0 ratings
1 star 2 stars 3 stars 4 stars 5 stars
comments

Vitamin Tab

   
Band: Incubus
Song: Vitamin
ALbum: S.C.I.E.N.C.E.
Tuning: Normal
By: Tim Dobson (Spadey)who else would it have been?
email: CrashedTD@aol.com

Hear we go agin then. Fantastic song, but i didn't need to say that
every  incubus song is amaing......ok? Then we'll begin.

Intro:(no distortion)

E:-----------------------------------------
B:-----------------------------------------
G:-----------------------------------------
D:--2-2--------------2-2-------------------
A:----------3-5--------------3-5-----------
E:------0-0-----0-0------0-0-----0-0-------

Pre Chorus:(w/distortion)
[ Tab from: http://www.guitartabs.cc/tabs/i/incubus/vitamin_tab.html ]
E:----------------------------------------11-11-11-11-11-11---
B:----------------------------------------11-11-11-11-11-11---
G:----------------------------------------11-11-11-11-11-11---
D:--2-2---------------2-2-------------------------------------
A:----------3-5---------------3-5-----------------------------
E:------0-0-----0-0-0-----0-0-----0-0-0-----------------------

Verse:(w/faid effect)

E:-----------------------------------------
B:-----------------------------------------
G:-----------------------------------------
D:--2-2--------------2-2-------------------
A:----------3-5--------------3-5-----------
E:------0-0-----0-0------0-0-----0-0-------

Chorus:(w/Distortion)

E:-------------------------------------------
B:-------------------------------------------
G:-------------------------------------------
D:--2-2--------------------------------------
A:----------3-5--------5-5-------------------
E:------0-0-----0-0-0------0-0--3-5--0-0-0---


E-mail me with any comments yada yada yada yada

Chears.
Spadey
Comments