Incubus - Under My Umbrella Chords & Tabs

 

Under My Umbrella Chords & Tabs

Incubus Chords & Tabs

Version: 3 Type: Tab 0 ratings
1 star 2 stars 3 stars 4 stars 5 stars
comments

Under My Umbrella Tab

   
Author/Artist: Incubus
Title: Under My Umbrella
Album: Morning View
Transcribed by: Cloud
Email: karinascloud9@yahoo.com
Drop D tuning
Effects: No clue - listen to the CD to match it

This is my first attempt, but I think it's ok

Intro (x2)
-----------------------------------------------
-----------------------------------------------
10-10-10-10--6-6-6-6---------10-------6/8-8\6--
10-10-10-10--6-6-6-6--3-3-3--10--6-6--6/8-8\6--
8--8--8--8---4-4-4-4--3-3-3--8---6-6--4/6-6\4--
----------------------3-3-3------6-6-----------

Verse (no guitar)
[ Tab from: http://www.guitartabs.cc/tabs/i/incubus/under_my_umbrella_tab_ver_3.html ]
Chorus
-----------------------------------------------
-----------------------------------------------
10-10-10-10--6-6-6-6---------10-------6/8-8\6--
10-10-10-10--6-6-6-6--3-3-3--10--6-6--6/8-8\6--
8--8--8--8---4-4-4-4--3-3-3--8---6-6--4/6-6\4--
----------------------3-3-3------6-6-----------

-----------------------------------------------
-----------------------------------------------
10-10-10-10--6-6-6-6----------------6/8-8\6----
10-10-10-10--6-6-6-6--6-6-6-6--3-3--6/8-8\6----
8--8--8--8---4-4-4-4--6-6-6-6--3-3--4/6-6\4----
----------------------6-6-6-6--3-3-------------

Verse (no guitar)

Chorus

Bridge - A (3x)
---------------
---------------
------6/8-8\6--
6--3--6/8-8\6--
6--3--4/6-6\4--
6--3-----------

Bridge - B
---------------
---------------
---------------
9-9--4---------
9-9--4---------
9-9--4---------

Chorus

Bridge A

Bridge B

Comments