Incubus - Under My Umbrella Chords & Tabs

 

Under My Umbrella Chords & Tabs

Incubus Chords & Tabs

Version: 1 Type: Bass Tab 0 ratings
1 star 2 stars 3 stars 4 stars 5 stars
comments

Under My Umbrella Bass Tab

   
!!! United States !!!Tuning:(D,A,D,G)


Intro
G|--------------------------------------------------------------------|
D|-333-333-333-333----------------------------------------------------|
A|------------------444-444-444-444--------------------------666-44444|
D|-----------------------------------333-333-333-333-666-666----------|


Verse, Play 3x                then Play
G|--------------------------|      G|----------------------|
D|--------------------------|      D|----------------------|
A|-4-----4------------------|      A|----------------------|
D|---3-3---3-3----3--3-55-66|      D|-6-33--6--33---3-22-11|
[ Tab from: http://www.guitartabs.cc/tabs/i/incubus/under_my_umbrella_btab.html ]
Chorus. Just like the beggining. 
G|--------------------------------------------------------------------|
D|-333-333-333-333----------------------------------------------------|
A|------------------444-444-444-444--------------------------666-44444|
D|-----------------------------------333-333-333-333-666-666----------|

G|--------------------------------------------------------------------|
D|-333-333-333-333----------------------------------------------------|
A|-----------------444-444-444-444--------------------------666-44444-|
D|---------------------------------444-444-444-444-33333-66-----------|


Bridge
G-------------------------|
D-------------------------|
A--------1/3-333-11-------|
D-33333-------------6-----|


This should be mostly right. 
Any praise or bad things to say to me. Send 'em to Bassman2OO2@aol.com. Okedoke.
Comments