Incubus - The Warmth Chords & Tabs

 

The Warmth Chords & Tabs

Incubus Chords & Tabs

Version: 9 Type: Tab 0 ratings
1 star 2 stars 3 stars 4 stars 5 stars
comments

The Warmth Tab

   
Author/Artist: Incubus
Title: The Warmth

I haven't really put much of an order to this, I've just tabbed it up for someone
of out the 'Make Yourself' book so it's pretty much dead on.  Chords & lyrics are
written down the bottom if you'd like them as well.
All in standard tuning.

w/delay
|------------------------------19------------------------------------19-----|
|-^19---17----17----17------------------^19---17----17----17----------------|
|----------19----19----17---16----16-------------19----19----17---16----16--|
|---------------------------------------------------------------------------|
|---------------------------------------------------------------------------|
|---------------------------------------------------------------------------|
 (1/2)                                 (1/2)          

|-----------------------------------------------
|--17---17---17---13---13---8---8---8---5---5---
|--16---16---16---12---12---7---7---7---4---4---
|-----------------------------------------------
|-----------------------------------------------
|-----------------------------------------------
  E5              C5        G5          E5      
                
Interlude
|-----------------------------------------------------------------------------
|-----------------------------------------------------------------------------
|-----------------------------------------------------------------------------
|-9p7-9p7-9p7-9-9-7h9-7h9-9p7-9p7-9p7-9p7-9p7-9-9-7h9-7h9-9p7-9p7-9p7-9p7-9p7-
|-----------------------------------------------------------------------------
|-----------------------------------------------------------------------------       
-----------------------------------------------------------------------------
-----------------------------------------------------------------------------
-----------------------------------------------------------------------------
-9-9-7h9-7h9-9p7-9p7-9p7-9p7-9p7-9-9-7h9-7h9-9p7-9p7-9p7-9p7-9p7-9-9-7h9-7h9-
-----------------------------------------------------------------------------
-----------------------------------------------------------------------------
                                                     w/ distortion 

-----------------------------------------------------------------------------
-----------------------------------------------------------------------------
-----------------------------------------------------------------------------
-9p7-9p7-9p7-9p7-9p7-9-9-7h9-7h9-9p7-9p7-9p7-9p7-9p7-9-9-7h9-7h9-9p7-9p7-9p7-
-----------------------------------------------------------------------------
-----------------------------------------------------------------------------
[ Tab from: http://www.guitartabs.cc/tabs/i/incubus/the_warmth_tab_ver_9.html ]
----------------------------------------------------------------------------
----------------------------------------------------------------------------
----------------------------------------------------------------------------
-9p7-9p7-9-9-9-9-9h10-9h10-9h10-9p7-9p7-9p7-9-9-7h9-7h9-9p7-9p7-9p7-9p7-9p7-
----------------------------------------------------------------------------
----------------------------------------------------------------------------

----------------------------------------------------------------------------
----------------------------------------------------------------------------
----------------------------------------------------------------------------
-9-9-9-9-9h10-9h10-9h10-9p7-9p7-9p7-9-9-7h9-7h9-9p7-9p7-9h10-9h10-9h10-9h10-
----------------------------------------------------------------------------
----------------------------------------------------------------------------

----------------------|
------------------0---|
------------------0---|
-9h10-9h10-9h10-9-----|
----------------------|
----------------------|
                                  
Riff in last chorus
|---------------------7---7------
|-^7---5---5---------------------
|--------7---7--5---4---4---4----
|--------------------------------
|--------------------------------
|--------------------------------
 Remember why you came........


Chords through verse Em (or 5), C5, G5 repeated, same for chorus.
Interlude - B5 for about 1/2, then D5 for 2 bars, C5 for 1 bar, B5 for
1 bar & D5 for one.
Last Chorus - E5, Cmaj7, G6add9 repeated (third time, last riff plays)
Outro - Em, C, G

|-0---0-------------------0------0-------0--
|-0---0-------------------0------0-------0--
|-0---9---5-------4---7---9------0-------x--
|-2---x---5---5---4---7---x------7-------4--
|-2---7---3---5---2---5---7------5-------2--
|-0---0-------3-----------8------3-------0--
  Em  E5  C5  G5  B5  D5  Cmaj7  G6add9  E5 

__________________
Lyrics (www.seeklyrics.com):

I'd like to close my eyes and go numb 
But there's a cold wind coming from 
The top of the highest high rise today 
Its not a breeze cuz it blows hard 
Yes and it wants me to discard the 
The humanity I know, watched the warmth blow away 
So don't let the world bring you down 
Not everyone here is that f**ked up and cold 
Remember why you came and while you're alive 
Experience the warmth before you grow old 
So do you think I should adhere 
To that pressing new frontier 
And leave in my wake, a trail of fear 
Should I hold my head up high 
And throw a wrench and spokes by 
I'm leaving the air behind me clear 
So don't let the world bring you down 
Not everyone here is that f**ked up and cold 
Remember why you came and while you're alive 
Experience the warmth before you grow old 
So don't let the world bring you down 
Not everyone here is that f**ked up and cold 
Remember why you came and while you're alive 
Experience the warmth before you grow old 
Before you grow old
Comments