Incubus - The Warmth Chords & Tabs

 

The Warmth Chords & Tabs

Incubus Chords & Tabs

Version: 7 Type: Tab 0 ratings
1 star 2 stars 3 stars 4 stars 5 stars
comments

The Warmth Tab

Band: Incubus
Title: The Warmth
Album: Make Yourself
Transcribed by: Shawn Tobin
Email: shawn_tobin@hotmail.com

 
  Tuning: Standard


 Intro: delay/phase
e----------------------------19------------------------------------------------
b-19^-17-15-17-15--------------------------------------------------------------
g----------------17\16---16------16--------------------------------------------
d------------------------------------------------------------------------------
a------------------------------------------------------------------------------
e------------------------------------------------------------------------------

                                                        
Chorus Riff: i still can't duplicate the exact sound he makes. i only have a 
             Zoom505 though and the effects on that are limited.

e--12--12-12--12-12--12-8---8--8--8---3--3-3--3-3--3--0--3h0--0--0-------------
b--12--12-12--12-12--12-8---8--8--8---3--3-3--3-3--3--0------------------------
g--9---9--9---9--9---9--5---5--5--5---0--0-0--0-0--0---------------------------
d--9---9--9---9--9---9--5---5--5--5--------------------------------------------
a------------------------------------------------------------------------------
e------------------------------------------------------------------------------

[ Tab from: http://www.guitartabs.cc/tabs/i/incubus/the_warmth_tab_ver_7.html ]
Bridge: I think there's 2 conflicting phase pedals going on. When i play it i 
        use pinch harmonics and move my right hand slowley to the extreme left
        (near the fretboard) and then back to the right (near the bridge).
        It causes the same type of effect if you do it right.

e----------------------------------|-------------------------------------------
b----------------------------------|-------------------------------------------
g----------------------------------|-------------------------------------------
d--9-7-9-7-9-7-9-9-7-9-7-9-9-7-9-7-|--9/10/9/10--------------------------------
a----------------------------------|-------------------------------------------
e----------------------------------|-------------------------------------------


 Chorus riff played with barchords..
e-0--|-0--|--0--|--0--|--------------------------------------------------------
b-0--|-0--|--0--|--0--|--------------------------------------------------------
g-9--|-0--|--0--|--0--|--------------------------------------------------------
d-9--|-10-|--5--|--2--|--------------------------------------------------------
a-7--|-10-|--5--|--2--|--------------------------------------------------------
e----|-8--|--3--|--0--|--------------------------------------------------------


 This is just the main riff played down an octave along with the other part.
e-----------------------7------------------------------------------------------
b--7^-5--3--5-3----------------------------------------------------------------
g--------------5\4---4-----4---------------------------------------------------
d------------------------------------------------------------------------------
a------------------------------------------------------------------------------
e------------------------------------------------------------------------------

  any comments? email me......  shawn_tobin@hotmail.com 
Comments