Incubus - The Warmth Chords & Tabs

 

The Warmth Chords & Tabs

Incubus Chords & Tabs

Version: 5 Type: Bass Tab 0 ratings
1 star 2 stars 3 stars 4 stars 5 stars
comments

The Warmth Bass Tab

   
Incubus - The Warmth
Submitted By: tom
EMail: tom837@retardsrule.com
Bassist-Dirk Lance
Normal tuning G,D,A,E
[ Tab from: http://www.guitartabs.cc/tabs/i/incubus/the_warmth_btab_ver_5.html ]
intro/verses 00:28-00:54
G----------------------------------------------|
D----------------------------------------------|x4
A-10/77-7/3-3-3-------------------------------|
E----------------3-3-3-3-3-0-0-0---------------|
chorus 00:55-01:00
G----------------------------------------------|
D----------------------------------------------|x1
A7-7-7--3-3-3---------------------------------|
E--------------3-3-3--0-0-0--------------------|
verse 1 01:00-01:26
G----------------------------------------------|
D----------------------------------------------|x4
A-10/77-7/3-3-3-------------------------------|
E----------------3-3-3-3-3-0-0-0---------------|
chorus 01:27-01:53
G----------------------------------------------|
D----------------------------------------------|x4
A7-7-7--3-3-3---------------------------------|
E--------------3-3-3--0-0-0--------------------|
verse 2 01:55-02:20
G----------------------------------------------|
D----------------------------------------------|x4
A-10/77-7/3-3-3-------------------------------|
E----------------3-3-3-3-3-0-0-0---------------|
chorus 02:21-02:46
G----------------------------------------------|
D----------------------------------------------|x4
A7-7-7--3-3-3---------------------------------|
E--------------3-3-3--0-0-0--------------------|
bridge 02:47-03:26
G----------------------------------------------|
D----------------------------------------------|
A2-2-2-22-22-2-2-2-22-2-22-22-2-2-2-22-2-22-33|
E----------------------------------------------|
bridge continued				x1		  
G----------------------------------------------|
D----------------------------------------------|
A-3-3-3-2-2-2-22-33-3-3-3-22-2-22-55-555555----|
E----------------------------------------------|
chorus 03:27-03:51
G----------------------------------------------|
D----------------------------------------------|x4
A7-7-7--3-3-3---------------------------------|
E--------------3-3-3--0-0-0--------------------|
outro 03:52-04:20 
G----------------------------------------------|
D----------------------------------------------|x4
A-10/77-7/3-3-3-------------------------------|
E----------------3-3-3-3-3-0-0-0(let ring)-----|
intro x4	
chorus x1
verse 1 x4
chorus x4
verse 2 x4
chorus x4
bridge x1
chorus x4
outro x4
the other guy who did this song had it mostly right, but this one is 
a little clearer.im pretty sure the number of 2's is rite in the bridge. the timing is 
also pretty easy. just listen to the song first to get the feel for it
any questions e-mail me at tom837@retardsrule.com.(the numbers above the
tablature are the times that part should be played)
Comments