Incubus - The Warmth Chords & Tabs

 

The Warmth Chords & Tabs

Incubus Chords & Tabs

Version: 1 Type: Bass Tab 0 ratings
1 star 2 stars 3 stars 4 stars 5 stars
comments

The Warmth Bass Tab

Incubus
 The Warmth
 Make Yourself
 Transcribed by Tyler Edwards (munkyhead4u@excite.com) This is a correction
 
        Verse
        ^^^^^
 G|-9-X---------------------------------------| NOT PLAYED THROUGH
 D|-------------------------------------------| THE WHOLE SONG
 A|------7-7-7-7---3-3-3--3-3-----------------|
 E|--------------------------3-3-3--3-3--0-0-0|
[ Tab from: http://www.guitartabs.cc/tabs/i/incubus/the_warmth_btab.html ]
        CHORUS
        ^^^^^^
 G|-----------------------------|
 D|-----------------------------|
 A|-7-------3-------------------|
 E|-----------------3---------0-|

        INTERLUDE
        ^^^^^^^^^
 G|-----------------------------------------|THERE ARE VARIATIONS
 D|-----------------------------------------| TO THIS PART JUST
 A|-2-2--2-22-22-2-2-2--2-2-2-22-2-2-2--2-2-| SOME 3'S AND 5'S
 E|-----------------------------------------|

 Thats all
If you have icq please contact me my icq # is 37134476

Comments