Incubus - The Warmth Acoustic Chords & Tabs

 

The Warmth Acoustic Chords & Tabs

Incubus Chords & Tabs

Version: 3 Type: Tab 0 ratings
1 star 2 stars 3 stars 4 stars 5 stars
comments

The Warmth Acoustic Tab

   
-----------------------------------------------------------------------
			     The Warmth (Acoustic) - Incubus
-----------------------------------------------------------------------

Tabbed by: AlexOlson
Email: AlexOlson_Incubus@lycos.com

Tuning: Standard

In the song, Mike Einziger has a really nice acoustic guitar so if you donít have
a nice one, it might not sound quite like the acoustic in the song. He also uses
a thin, felt pick. Itíll sound more authentic if you use one. Also, this song
sounds really cool if you play it along with the non-acoustic version of the song song.

				INTRO                
e|------0------0------0------0----0---0---0---0-|
B|----17-17--17-17--13-13--13----8-8-8-8-5-5-5--|
G|--16-----16-----12-----12-----7---7---4---4---|
D|----------------------------------------------|   x2
A|----------------------------------------------|
E|----------------------------------------------|
                         
e|------------------------------------------------------|
B|------------------------------------------------------|
G|--12-9--9--9--9--9-9--9-9--9-------------------4-4--4-|
D|--x--x--x--x--x--x-x--x-x--x---7-7-7-7-7--7-7--4-4--4-|   x4
A|--10-7--7--7--7--7-7--7-7--7---5-5-5-5-5--5-5--2-2--2-|
E|--0--0--0--0--0--0-0--8-8--8---3-3-3-3-3--3-3--0-0--0-|

e|------0------0------0------0----0---0---0---0-|
B|----17-17--17-17--13-13--13----8-8-8-8-5-5-5--|
G|--16-----16-----12-----12-----7---7---4---4---|
D|----------------------------------------------|
A|----------------------------------------------|
E|----------------------------------------------|

				VERSE 1
e|------------------------------------------------------|
B|------------------------------------------------------|
G|--12-9--9--9--9--9-9--9-9--9-------------------4-4--4-|
D|--x--x--x--x--x--x-x--x-x--x---7-7-7-7-7--7-7--4-4--4-|   x4
A|--10-7--7--7--7--7-7--7-7--7---5-5-5-5-5--5-5--2-2--2-|
E|--0--0--0--0--0--0-0--8-8--8---3-3-3-3-3--3-3--0-0--0-|

				CHORUS 1
e|------0------0------0-------0------0---0---0----0-|
B|----17-17--17-17--13-13ó-13-13----8-8-8-8-5-5-5-5-|
G|--16-----16-----12-----12---12---7---7---4---4--4-|
D|--------------------------------------------------|   x4
A|--------------------------------------------------|
E|--------------------------------------------------|
[ Tab from: http://www.guitartabs.cc/tabs/i/incubus/the_warmth_acoustic_tab_ver_3.html ]
				SOLO
e|-----------------------------------------------------------|
B|--10-10-10-8-8-8-8-8h10-10p8-8-8-8-7-7-7-7\5-5-7-7-5-7-7-8-|
G|-----------------------------------------------------------|
D|-----------------------------------------------------------|
A|-----------------------------------------------------------|
E|-----------------------------------------------------------|

e|--12-14-7----------------------|
B|----------10-8/10--------------|
G|------------------7-7-6-7/99-9-|
D|-------------------------------|
A|-------------------------------|
E|-------------------------------|

				VERSE 2
e|------------------------------------------------------|
B|------------------------------------------------------|
G|---9-9--9--9--9--9-9--9-9--9-------------------4-4--4-|
D|---x-x--x--x--x--x-x--x-x--x---7-7-7-7-7--7-7--4-4--4-|   x4
A|---7-7--7--7--7--7-7--7-7--7---5-5-5-5-5--5-5--2-2--2-|
E|---0-0--0--0--0--0-0--8-8--8---3-3-3-3-3--3-3--0-0--0-|

				CHORUS 2
e|------0------0------0------0--------0---0---0---0---|
B|----17-17--17-17--13-13ó-13-13-----8-8-8-8-5-5-5-5--|
G|--16-----16-----12-----12-----12--7---7---4---4---4-|
D|----------------------------------------------------|   x4
A|----------------------------------------------------|
E|----------------------------------------------------|

				INTERLUDE
e|-------------------------------------|
B|-------------------------------------|
G|-------------------------------------|
D|---9p7-9p7-9p7-7-9p7-9ó9p7-9p7-9p7---|   x11
A|---9p7-9p7-9p7-7-9p7-9-9p7-9p7-9p7---|
E|-------------------------------------|

				VERSE 2
e|------------------------------------------------------|
B|------------------------------------------------------|
G|---9-9--9--9--9--9-9--9-9--9-------------------4-4--4-|
D|---x-x--x--x--x--x-x--x-x--x---7-7-7-7-7--7-7--4-4--4-|   x4
A|---7-7--7--7--7--7-7--7-7--7---5-5-5-5-5--5-5--2-2--2-|
E|---0-0--0--0--0--0-0--8-8--8---3-3-3-3-3--3-3--0-0--0-|

				OUTRO
e|-------------------7-7-----------------|
B|--7h8p7-5-5----------------------------|
G|---------7-7-5-4--4-4-4----------------|
D|---------------------------------------|   x4
A|---------------------------------------|
E|---------------------------------------|



 /  slide up
 \  slide down
 h  hammer-on
 p  pull-off
 x  Mute note

=======================================================================
Comments