Incubus - The Warmth Acoustic Chords & Tabs

 

The Warmth Acoustic Chords & Tabs

Incubus Chords & Tabs

Version: 1 Type: Tab 0 ratings
1 star 2 stars 3 stars 4 stars 5 stars
comments

The Warmth Acoustic Tab

E----------------------------------------------------------0--
B---------------------------------------------------------0---
G--12\9--9--9---9---9---9---9-----0-----0--0-------------0----
D---X-X--X--X---X---X---X---X-----7-----7--7------------4-----
A--10\7--7--7---7---7---7---7-----5-----5--5-------2---2------
E--0-----0--0---0---8---8---8-----3-----3--3------0-----------

[ Tab from: http://www.guitartabs.cc/tabs/i/incubus/the_warmth_acoustic_tab.html ]
E-------------------------------------------------------------
B---17--17-17-17--17-17--13-13--13--13--8--8-8-8--8-8--5-5--5-
G---16--16-16-16--16-16--12-12--12--12--7--7-7-7--7-7--4-4--4-
D-------------------------------------------------------------
A-------------------------------------------------------------
E-------------------------------------------------------------

This tab is 100% correct to my knowledge.  Please email me back at
jamesotto21@cox.net if you disagree.
Comments