Incubus - Talk Show On Mute Chords & Tabs

 

Talk Show On Mute Chords & Tabs

Incubus Chords & Tabs

Version: 7 Type: Tab 0 ratings
1 star 2 stars 3 stars 4 stars 5 stars
comments

Talk Show On Mute Tab

   
Band- Incubus 
Song- Talk Show On mute

Gtr I (E A D G B E) - 'Acoustic'
Gtr II (E A D G B E) - 'Overdrive'
Gtr III (E A D G B E) - 'Clean'
Gtr IV (E A D G B E) - 'Clean 2'
Gtr V (E A D G B E) - 'Soft Clean(For Chorus)'

 Intro
  Q=115
  C   D5CA      D5/AC   D5CA      D5/AA5  D5A5  Em/A    A5      D5GA  D5/A
 4/4
  Gtrs I, III
  E E E E E E E E   E E E E E E E E   E E E E E E E E   E E E E E E E E
|-----------------|-----------------|-----------------|------------------|
|-----------------|-----------------|-----------------|------------------|
|-----------0-----|-----------0-----|-----------0-----|-----------4-4----|
|-2-2-0-2-----2-0-|-2-2-0-2-----2-0-|-2-2-0-2-----2---|-2-----2-0S5-5-0--|
|-3-3-0-3-3-----0-|-3-3-0-3-3-----0-|-0-0-0-0-0-----0-|-0-0-0-0-0Sx-x-0--|
|-----------------|-----------------|-----------------|-----------3-3----|


  C   D5CA      D5/AC   D5CA      D5/AA5  D5A5  Em/A    A5  D5/AD5GA  D5/A
  E E E E E E E E   E E E E E E E E   E E E E E E E E   E E E E E E E E
|-----------------|-----------------|-----------------|-----------------|
|-----------------|-----------------|-----------------|-----------------|
|-----------0-----|-----------0-----|-----------0-----|-----------4-4---|
|-2-2-0-2-----2-0-|-2-2-0-2-----2-0-|-2-2-0-2-----2---|-2-2-0-2-0S5-5-0-|
|-3-3-0-3-3-----0-|-3-3-0-3-3-----0-|-0-0-0-0-0-----0-|-0-0-0-0-0Sx-x-0-|
|-----------------|-----------------|-----------------|-----------3-3---|


   Verse
    C   D5CA      D5/AC   D5CA      D5/AA5  D5A5  Em/A    A5  D5/AD5GA  D5/A
    PM------|         PM------|         PM------|         PM----|
    E E E E E E E E   E E E E E E E E   E E E E E E E E   E E E E E E E E   3x
||------------------|-----------------|-----------------|-------------------||
||o-----------------|-----------------|-----------------|------------------o||
||------------0-----|-----------0-----|-----------0-----|-----------4-4-----||
||--2-2-0-2-----2-0-|-2-2-0-2-----2-0-|-2-2-0-2-----2---|-2-2-0-2-0S5-5-0---||
||o-3-3-0-3-3-----0-|-3-3-0-3-3-----0-|-0-0-0-0-0-----0-|-0-0-0-0-0Sx-x-0--o||
||------------------|-----------------|-----------------|-----------3-5-----||


  C   D5CA      D5/AC   D5CA      D5/AA5  D5A5  Em/A    A5  D5/AD5GA
  PM------|         PM------|         PM------|         PM----|
  E E E E E E E E   E E E E E E E E   E E E E E E E E   E E E E E E E E
|-----------------|-----------------|-----------------|-----------------|
|-----------------|-----------------|-----------------|-----------------|
|-----------0-----|-----------0-----|-----------0-----|-----------4-4---|
|-2-2-0-2-----2-0-|-2-2-0-2-----2-0-|-2-2-0-2-----2---|-2-2-0-2-0S5-5-3-|
|-3-3-0-3-3-----0-|-3-3-0-3-3-----0-|-0-0-0-0-0-----0-|-0-0-0-0-0Sx-x---|
|-----------------|-----------------|-----------------|-----------3-3---|


 Chorus
     Am/F     C/Am/F     C/F Am/F       G        G       G  E5 Em
  Q  Q  +E  E E E   +Q   E E Q  Q    Q  H    +E  E   +E  Q  Q  E E S S
|----5--(5)-5---5-|-(5)------5--5--|----3----(3)-3-|-(3)-3-----0-0------|
|----5--(5)-5-5-5-|-(5)--5-5-5--5--|----3----(3)-3-|-(3)-3-----0-0------|
|----5--(5)-5-5-5-|-(5)--5-5-5--5--|----4----(4)-4-|-(4)-4-----0-0------|
|-3--3--(3)-3-3-3-|-(3)--3-3-3--3--|----5----(5)-5-|-(5)-5--2--2-2------|
|-----------------|----------------|----5----(5)-5-|-(5)-5--2-----------|
|-----------------|----------------|-3--3----(3)-3-|-(3)-3--0------1-1--|


     Am/F     C/Am/F     C/F Am/F       G     G5 Bb5     G5     G
  Q  Q  +E  E E E   +Q   E E Q  Q    Q  Q.    Q.     +E  E E Q  E E E
|----5--(5)-5---5-|-(5)------5--5--|----3-----3----|-(3)-3-3-3--3-3-3-|
|----5--(5)-5-5-5-|-(5)--5-5-5--5--|----3-----3----|-(3)-3-3-3--3-3-3-|
|----5--(5)-5-5-5-|-(5)--5-5-5--5--|----4-----4----|-(4)-4-4-4--4-4-4-|
|----3--(3)-3-3-3-|-(3)--3-3-3--3--|----5-----5----|-(5)-5-5-5--5-5-5-|
|-----------------|----------------|----5-----5----|-(5)-5-5-5--5-5-5-|
|-1---------------|----------------|-3--3-----3----|-(3)-3-3-3--3-3-3-|
|
| Gtr II
| W                  W               H      E Q  E   +E  E E Q  E E E
|-----------------|----------------|---------------|------------------|
|-----------------|----------------|---------------|------------------|
|-----------------|----------------|---------------|------------------|
|-----------------|----------------|----------5S=8-|-(8)-5-5-5--5-5-5-|
|-----------------|----------------|----------5S=8-|-(8)-5-5-5--5-5-5-|
|-----------------|----------------|----------3S=6-|-(6)-3-3-3--3-3-3-|


 Bridge/Verse
  C   D5CA      D5/AC   D5CA      D5/AA5  D5/A  Em/A    A5  D5/AD5GA  D5/A
  PM------|         PM------|         PM------|         PM----|
  E E E E E E E E   E E E E E E E E   E E E E E E E E   E E E E E E E E
|-----------------|-----------------|-----------------|-----------------|
|-----------------|-----------------|-----------------|-----------------|
|-----------0-----|-----------0-----|-----------0-----|-----------4-4---|
|-2-2-0-2-----2-0-|-2-2-0-2-----2-0-|-2-2-0-2-----2---|-2-2-0-2-0S5-5-0-|
|-3-3-0-3-3-----0-|-3-3-0-3-3-----0-|-0-0-0-0-0-----0-|-0-0-0-0-0Sx-x-0-|
|-----------------|-----------------|-----------------|-----------3-3---|


  Em/C                     Esus4/A
   W          +W            W          +W
|-----------|------------|-^0--------|-(0)----|
|-^0--------|-(0)--------|-^0--------|-(0)----|
|-^0--------|-(0)--------|-^2--------|-(2)----|
|-^2--------|-(2)--------|-^2--------|-(2)----|
|-^3--------|-(3)--------|-^0--------|-(0)----|
|-----------|------------|-----------|--------|


  Em/C                     Esus4/A                G   D5/A
   W          +W            W          +H     +E  E E E
|-----------|------------|-----------|------------------|
|-^0--------|-(0)--------|-^0--------|-(0)----(0)-------|
|-^0--------|-(0)--------|-^2--------|-(2)----(2)-4-4---|
|-^2--------|-(2)--------|-^2--------|-(2)----(2)-5-5-0-|
|-^3--------|-(3)--------|-^0--------|-(0)----(0)-x-x-0-|
|-----------|------------|-----------|------------3-3---|


  C   D5CA      D5/AC   D5CA      D5/AA5  D5A5  Em/A    A5  D5A5  G   D5/A
  PM------|         PM------|         PM------|         PM----|
  E E E E E E E E   E E E E E E E E   E E E E E E E E   E E E E E E E E
|-----------------|-----------------|-----------------|-----------------|
|-----------------|-----------------|-----------------|-----------------|
|-----------0-----|-----------0-----|-----------0-----|-----------4-4---|
|-2-2-0-2-----2-0-|-2-2-0-2-----2-0-|-2-2-0-2-----2---|-2-2-0-2-0S5-5-0-|
|-3-3-0-3-3-----0-|-3-3-0-3-3-----0-|-0-0-0-0-0-----0-|-0-0-0-0-0Sx-x-0-|
|-----------------|-----------------|-----------------|-----------3-3---|


  C   D5CA      D5/AC   D5CA      D5/AA5  D5/A  Em/A    A5  D5A5  G
  PM------|         PM------|         PM------|         PM----|
  E E E E E E E E   E E E E E E E E   E E E E E E E E   E E E E E E E E
|-----------------|-----------------|-----------------|-----------------|
|-----------------|-----------------|-----------------|-----------------|
|-----------0-----|-----------0-----|-----------0-----|-----------4-4---|
|-2-2-0-2-----2-0-|-2-2-0-2-----2-0-|-2-2-0-2-----2---|-2-2-0-2-0S5-5-3-|
|-3-3-0-3-3-----0-|-3-3-0-3-3-----0-|-0-0-0-0-0-----0-|-0-0-0-0-0Sx-x---|
|-----------------|-----------------|-----------------|-----------3-3---|


   Chorus
       Am/F     C/Am/F     C/F Am/F       G          G       G  E5  Em
    Gtrs I, III
    Q  Q  +E  E E E   +Q   E E Q  Q    Q  H      +E  E   +E  Q  Q   E E S S
||-----5--(5)-5---5-|-(5)------5--5--|----3------(3)-3-|-(3)-3------0-0-----|
||o----5--(5)-5-5-5-|-(5)--5-5-5--5--|----3------(3)-3-|-(3)-3------0-0-----|
||-----5--(5)-5-5-5-|-(5)--5-5-5--5--|----4------(4)-4-|-(4)-4------0-0-----|
||--3--3--(3)-3-3-3-|-(3)--3-3-3--3--|----5------(5)-5-|-(5)-5--2---2-2-----|
||o-----------------|----------------|----5------(5)-5-|-(5)-5--2-----------|
||------------------|----------------|-3--3------(3)-3-|-(3)-3--0-------1-1-|
|
|   Gtr V
|   Q  Q  +E  E E E   +Q   E E Q  Q    Q  Q  E E  E  E   +E  Q  E E E E S S
||-----5--(5)-5---5-|-(5)------5--5--|----3------------|------------3-------|
||o----5--(5)-5-5-5-|-(5)--5-5-5--5--|----3--3-3--3--3-|-(3)-3------0-------|
||-----5--(5)-5-5-5-|-(5)--5-5-5--5--|----4--4-4--4--4-|-(4)-4------0-0-----|
||--3--3--(3)-3-3-3-|-(3)--3-3-3--3--|----5--5-5--5--5-|-(5)-5--------2-----|
||o-----------------|----------------|----5------------|----------2---------|
||------------------|----------------|-3--3------------|--------0-------1-1-|

[ Tab from: http://www.guitartabs.cc/tabs/i/incubus/talk_show_on_mute_tab_ver_7.html ]
     Am/F     C/Am/F     C/F Am/F       G     G5 Bb5     G
  Q  Q  +E  E E E   +Q   E E Q  Q    Q  Q.    Q.     +E  E E Q  E E E
|----5--(5)-5---5-|-(5)------5--5--|----3-----3----|-(3)-3-3-3--3-3-3--||
|----5--(5)-5-5-5-|-(5)--5-5-5--5--|----3-----3----|-(3)-3-3-3--3-3-3-o||
|----5--(5)-5-5-5-|-(5)--5-5-5--5--|----4-----4----|-(4)-4-4-4--4-4-4--||
|----3--(3)-3-3-3-|-(3)--3-3-3--3--|----5-----5----|-(5)-5-5-5--5-5-5--||
|-----------------|----------------|----5-----5----|-(5)-5-5-5--5-5-5-o||
|-1---------------|----------------|-3--3-----3----|-(3)-3-3-3--3-3-3--||
|
|                                    Gtr II
| Q  Q  +E  E E E   +Q   E E Q  Q    H      E Q  E   +E  E E Q  E E E
|----5--(5)-5---5-|-(5)------5--5--|---------------|-------------------||
|----5--(5)-5-5-5-|-(5)--5-5-5--5--|---------------|------------------o||
|----5--(5)-5-5-5-|-(5)--5-5-5--5--|---------------|-------------------||
|----3--(3)-3-3-3-|-(3)--3-3-3--3--|----------5S=8-|-(8)-5-5-5--5-5-5--||
|-----------------|----------------|----------5S=8-|-(8)-5-5-5--5-5-5-o||
|-1---------------|----------------|----------3S=6-|-(6)-3-3-3--3-3-3--||


 Guitar Solo
    Em/C
  Gtr IV
  A  H.      +E  S S    E  E E A E E E E E
|--------------------|---------------------|
|--------------------|---------------------|
|--------------------|---------------------|
|--------------------|--5----5-5-7-7-5---5-|
|-5h=7-------(7)-5h7-|-----7-----------7---|
|--------------------|---------------------|
|
|   Gtrs I, III
|    W                 +W
|--------------------|---------------------|
|---^0---------------|-(0)-----------------|
|---^0---------------|-(0)-----------------|
|---^2---------------|-(2)-----------------|
|---^3---------------|-(3)-----------------|
|--------------------|---------------------|


    Esus4/A
  A  E E E  E E E A Q    +Q.   E E E E E
|----------------------|------------------|
|----------------------|------------------|
|----------------------|------------------|
|-5h=7-5-7-10-7-5-5h7--|-(7)---5-5-5-0-5--|
|----------------------|------------------|
|----------------------|------------------|
|
|    W                   +W
|---^0-----------------|-(0)--------------|
|---^0-----------------|-(0)--------------|
|---^2-----------------|-(2)--------------|
|---^2-----------------|-(2)--------------|
|---^0-----------------|-(0)--------------|
|----------------------|------------------|


  G   GsuC5/A  G5/DC5  G5/D     Em        G5/D   C5    Gsus2/A
   E. E.  E  A  E.  E.  E     A  Q    +E   E  S   E  A  E.  E
|--------------------------|-----------------------------------|
|--------------------------|-----------------------------------|
|--0--0---0--0--0---0---0--|--0--0----(0)--0-(0)--0--0-(0)-(0)-|
|--5--7--10-10S12--10--12--|-12S14---(14)-12-12S=10-10S=7---7--|
|--------------------------|-----------------------------------|
|--------------------------|-----------------------------------|
|
|  W                            +W
|--------------------------|-----------------------------------|
|-^0-----------------------|----(0)----------------------------|
|-^0-----------------------|----(0)----------------------------|
|-^2-----------------------|----(2)----------------------------|
|-^3-----------------------|----(3)----------------------------|
|--------------------------|-----------------------------------|


  Esus4/A
   E. E. E H       +H     +E   E E E
|----------------|-------------------|
|----------------|-------------------|
|----------5-----|-(5)----(5)--------|
|--7--5--7-------|------------10-7---|
|----------------|-----------------7-|
|----------------|-------------------|
|
|  W               +W
|----------------|-------------------|
|-^0-------------|-(0)---------------|
|-^2-------------|-(2)---------------|
|-^2-------------|-(2)---------------|
|-^0-------------|-(0)---------------|
|----------------|-------------------|


       Am/F           Am/F     Am/F
  E  E  E E +E   E  E  E    E   E  E  E E E  E E
|------------------------|-----------------------|
|------10----------10----|-----------------------|
|---------9-(9)--------9-|-----------------------|
|---10----------10----10-|-10--10-10-10-9-9--7-7-|
|-8----------------------|-----------------------|
|------------------------|-----------------------|
|
| Q     H           E  E   +E   Q     Q   Q.
|-------5-----------5--5-|-(5)--5-----5---5------|
|-------5-----------5--5-|-(5)--5-----5---5------|
|-------5-----------5--5-|-(5)--5-----5---5------|
|-3-----3-----------3--3-|-(3)--3-----3---3------|
|------------------------|-----------------------|
|------------------------|-----------------------|


      G        G           G       G
  E E E  E +E  E E E   +E  E E E E E E E
|--------------------|-------------------|
|--------------------|-------------------|
|-9---9--7-(7)---7-7-|-(7)-9---9-7---7---|
|---7----------7-----|-------7-----7---7-|
|--------------------|-------------------|
|--------------------|-------------------|
|
| Q   Q.       E E E   +E  E E Q   E E E
|--------------------|-------------------|
|--------------------|-------------------|
|-----4--------4-4-4-|-(4)-4-4-4---4-4-4-|
|-----5--------5-5-5-|-(5)-5-5-5---5-5-5-|
|-----5--------5-5-5-|-(5)-5-5-5---5-5-5-|
|-3---3--------3-3-3-|-(3)-3-3-3---3-3-3-|


      Am/F      Am/F      Am/F    Am/F
  E E E +E  E E E E    E  E E E E E  E E
|-------------------|--------------------|
|-------------------|--------------------|
|-7---5-(5)---5---5-|--7----5-----5----5-|
|---7-------7---7---|-----7---7-7----7---|
|-------------------|--------------------|
|-------------------|--------------------|
|
| Q   H         E E   +E  Q   Q   Q.
|-----5---------5-5-|-(5)-5---5---5------|
|-----5---------5-5-|-(5)-5---5---5------|
|-----5---------5-5-|-(5)-5---5---5------|
|-3---3---------3-3-|-(3)-3---3---3------|
|-------------------|--------------------|
|-------------------|--------------------|


      G        G           G/B               G
                            <
  E E E  +E  E E E E   +E   E  E  E  E  E  E S S
|--------------------|----------------------------|
|--------------------|----------------------------|
|--------------------|-----12-12-12-12-12-12------|
|-7-9-9--(9)-7-9-7-9-|-(9)--9--9--9--9--9--9-3-3--|
|--------------------|----------------------------|
|--------------------|----------------------------|
|
| Q   Q.       E E E   +E   E  E  Q     E  E E
|--------------------|----------------------------|
|--------------------|----------------------------|
|-----4--------4-4-4-|-(4)--4--4--4-----4--4-4----|
|-----5--------5-5-5-|-(5)--5--5--5-----5--5-5----|
|-----5--------5-5-5-|-(5)--5--5--5-----5--5-5----|
|-3---3--------3-3-3-|-(3)--3--3--3-----3--3-3----|


 Chorus
     Am/F     C/Am/F     C/F Am/F       G        G       G  E5 Em
  Gtrs I, III
  Q  Q  +E  E E E   +Q   E E Q  Q    Q  H    +E  E   +E  Q  Q  E E S S
|----5--(5)-5---5-|-(5)------5--5--|----3----(3)-3-|-(3)-3-----0-0------|
|----5--(5)-5-5-5-|-(5)--5-5-5--5--|----3----(3)-3-|-(3)-3-----0-0------|
|----5--(5)-5-5-5-|-(5)--5-5-5--5--|----4----(4)-4-|-(4)-4-----0-0------|
|-3--3--(3)-3-3-3-|-(3)--3-3-3--3--|----5----(5)-5-|-(5)-5--2--2-2------|
|-----------------|----------------|----5----(5)-5-|-(5)-5--2-----------|
|-----------------|----------------|-3--3----(3)-3-|-(3)-3--0------1-1--|


     Am/F     C/Am/F     C/F Am/F       G     G5 Bb5     G      G
  Gtrs I, III
  Q  Q  +E  E E E   +Q   E E Q  Q    Q  Q.    Q.     +E  E E Q  E E E
|----5--(5)-5---5-|-(5)------5--5--|----3-----3----|-(3)-3-3-3--3-3-3-|
|----5--(5)-5-5-5-|-(5)--5-5-5--5--|----3-----3----|-(3)-3-3-3--3-3-3-|
|----5--(5)-5-5-5-|-(5)--5-5-5--5--|----4-----4----|-(4)-4-4-4--4-4-4-|
|----3--(3)-3-3-3-|-(3)--3-3-3--3--|----5-----5----|-(5)-5-5-5--5-5-5-|
|-----------------|----------------|----5-----5----|-(5)-5-5-5--5-5-5-|
|-1---------------|----------------|-3--3-----3----|-(3)-3-3-3--3-3-3-|
|
| Gtr II
| W                  W               H      E Q  E   +E  E E Q  E E E
|-----------------|----------------|---------------|------------------|
|-----------------|----------------|---------------|------------------|
|-----------------|----------------|---------------|------------------|
|-----------------|----------------|----------5S=8-|-(8)-5-5-5--5-5-5-|
|-----------------|----------------|----------5S=8-|-(8)-5-5-5--5-5-5-|
|-----------------|----------------|----------3S=6-|-(6)-3-3-3--3-3-3-|


   Outro
    Em/C                     Esus4/A     F/A
     W          +W            W           W
||------------|------------|-^0--------|-------|
||o-^0--------|-(0)--------|-^0--------|-^1----|
||--^0--------|-(0)--------|-^2--------|-^2----|
||--^2--------|-(2)--------|-^2--------|-^3----|
||o-^3--------|-(3)--------|-^0--------|-^0----|
||------------|------------|-----------|-------|


  1.
  Em/C                     Esus4/A     F/A
   W          +W            W           W
|-----------|------------|-----------|--------||
|-^0--------|-(0)--------|-^0--------|-^1----o||
|-^0--------|-(0)--------|-^2--------|-^2-----||
|-^2--------|-(2)--------|-^2--------|-^3-----||
|-^3--------|-(3)--------|-^0--------|-^0----o||
|-----------|------------|-----------|--------||


  2.
  Am
   W          +W           +W           +W
|-----------|------------|------------|--------*|
|-^5--------|-(5)--------|-(5)--------|-(5)----*|
|-^5--------|-(5)--------|-(5)--------|-(5)----*|
|-^7--------|-(7)--------|-(7)--------|-(7)----*|
|-^7--------|-(7)--------|-(7)--------|-(7)----*|
|-^5--------|-(5)--------|-(5)--------|-(5)----*|


Duration Legend
---------------
W - whole; H - half; Q - quarter; E - 8th; S - 16th; T - 32nd; X - 64th; a - acciaccatura
+ - note tied to previous; . - note dotted; .. - note double dotted
Uncapitalized letters represent notes that are staccato (1/2 duration)
Irregular groupings are notated above the duration line
Duration letters will always appear directly above the note/fret number it represents the
duration for.  Duration letters with no fret number below them represent rests.  Multi-
bar rests are notated in the form Wxn, where n is the number of bars to rest for.  Low
melody durations appear below the staff

Tablature Legend
----------------
 h   - hammer-on
 p   - pull-off
 b   - bend
 pb  - pre-bend
 r   - bend release (if no number after the r, then release immediately)
 /\  - slide into or out of (from/to "nowhere")
 s   - legato slide
 S   - shift slide
  - natural harmonic
[n]  - artificial harmonic
n(n) - tapped harmonic
 ~   - vibrato
 tr  - trill
 T   - tap
 TP  - trem. picking
 PM  - palm muting
\n/  - tremolo bar dip; n = amount to dip
 \n  - tremolo bar down
 n/  - tremolo bar up
/n\  - tremolo bar inverted dip
 =   - hold bend; also acts as connecting device for hammers/pulls
 <>  - volume swell (louder/softer)
 x   - on rhythm slash represents muted slash
 o   - on rhythm slash represents single note slash

Misc Legend
-----------
 |  - bar
||  - double bar
||o - repeat start
o|| - repeat end
*|  - double bar (ending)
 :  - bar (freetime)
 $  - Segno
 &  - Coda
Tempo markers -  = BPM(8/16=s8/s16), where s8 = swing 8ths, s16 = swing 16ths


***************************************************************************************
* Generated using Power Tab Editor by Brad Larsen - http://powertab.guitarnetwork.org *
***************************************************************************************
Comments