Incubus - Talk Show On Mute Chords & Tabs

 

Talk Show On Mute Chords & Tabs

Incubus Chords & Tabs

Version: 5 Type: Tab 0 ratings
1 star 2 stars 3 stars 4 stars 5 stars
comments

Talk Show On Mute Tab

   
Song: Talk Show On Mute
Band: Incubus
Tune: Standard (EADGBe)
Tabbed By: tectactoe

h= hammer-on
p= pull off
^= bend behind nut
x= dead string stroke

Intro/Verse 1
==============================================================
(Play the Intro with no PMs. For the verse, play PMs where noted.)

e|------------------------------------------------------------------|
B|------------------------------------------------------------------|
G|-----------0---------------0---------------0----------------------|
D|-2-2-0-2-2---2-0-2-2-0-2-2---2-0-2-2-0-2-2---2-0-2-2-0-2-2-9-9-0--|
A|-3-3-0-3-3-----0-3-3-0-3-3-----0-0-0-0-0-0-----0-0-0-0-0-0-7-7-0--|
E|------------------------------------------------------------------|
pm . . . . .       . . . . .       . . . . .       . . . . .

Chorus
==============================================================

e|-x--5-x-5-x---5-55-------3---3---3---3-33-000--|
B|-x--5-x-5-x-5-5-55-------3---3---3---3-33-000--|
G|-x5-5-x-5-x-5-5-55-------4-x-4---4---4-44-000--|
D|-x3-3-3-3-x-3-3-33-------5-x-5-5-5-x-5-55-222--|
A|-------------------222---5-x-5-5-5-x-5-55-222--|
E|-------------------000-3-3-x-3-3-3-3-3-33-000--|

e|-x--5-x-5-x---5-55-------3---3---3---3/6\3---x-3--|
B|-x--5-x-5-x-5-5-55-------3---3---3---3/6\3---x-3--|
G|-x5-5-x-5-x-5-5-55-------4-x-4---4---4/7\4-4-x-4--|
D|-x3-3-3-3-x-3-3-33-------5-x-5-5-5-x-5/8\5-5-x-5--|
A|-------------------2x2---5-x-5-5-5-x-5/8\5-5-x-5--|
E|-------------------0x0-3-3-x-3-3-3-3-3/6\3-3-x-3--|


Fill
==============================================================

e|------------------------------------------------------------------|
B|------------------------------------------------------------------|
G|-----------0---------------0---------------0----------------------|
D|-2-2-0-2-2---2-0-2-2-0-2-2---2-0-2-2-0-2-2---2-0-2-2-0-2-2-9-9-0--|
A|-3-3-0-3-3-----0-3-3-0-3-3-----0-0-0-0-0-0-----0-0-0-0-0-0-7-7-0--|
E|------------------------------------------------------------------|


Verse 2
==============================================================

e|---------0^------0^------0^------0^----------|
B|-------0^------0^------0^------0^------------|
G|-----0^------2^------0^------2^--------------|
D|---2^------2^------2^------2^---------9-9-0--|
A|-3^------0^------3^------0^-----------7-7-0--|
E|---------------------------------------------|

e|------------------------------------------------------------------|
B|------------------------------------------------------------------|
G|-----------0---------------0---------------0----------------------|
D|-2-2-0-2-2---2-0-2-2-0-2-2---2-0-2-2-0-2-2---2-0-2-2-0-2-2-9-9-0--| x2
A|-3-3-0-3-3-----0-3-3-0-3-3-----0-0-0-0-0-0-----0-0-0-0-0-0-7-7-0--|
E|------------------------------------------------------------------|
pm . . . . .       . . . . .       . . . . .       . . . . .


Chorus
==============================================================

e|-x--5-x-5-x---5-55-------3---3---3---3-33-000--|
B|-x--5-x-5-x-5-5-55-------3---3---3---3-33-000--|
G|-x5-5-x-5-x-5-5-55-------4-x-4---4---4-44-000--|
D|-x3-3-3-3-x-3-3-33-------5-x-5-5-5-x-5-55-222--|
A|-------------------222---5-x-5-5-5-x-5-55-222--|
E|-------------------000-3-3-x-3-3-3-3-3-33-000--|
[ Tab from: http://www.guitartabs.cc/tabs/i/incubus/talk_show_on_mute_tab_ver_5.html ]
e|-x--5-x-5-x---5-55-------3---3---3---3/6\3---x-3--|
B|-x--5-x-5-x-5-5-55-------3---3---3---3/6\3---x-3--|
G|-x5-5-x-5-x-5-5-55-------4-x-4---4---4/7\4-4-x-4--|
D|-x3-3-3-3-x-3-3-33-------5-x-5-5-5-x-5/8\5-5-x-5--| repeat whole 
A|-------------------2x2---5-x-5-5-5-x-5/8\5-5-x-5--|    chorus
E|-------------------0x0-3-3-x-3-3-3-3-3/6\3-3-x-3--|


Solo
==============================================================

e|----------------------------------------------------------|
B|----------------------------------------------------------|
G|-----------------------------------5-------------0-----0--|
D|---------5---5-7-5h7-5---7-5h7-5-7---7-5-5h7---5---5-5----|
A|-/7--5h7---7-----------7----------------------------------|
E|----------------------------------------------------------|

e|----------------------------------------------------------|
B|----------------------------------------------------------|
G|-0-0---0---0--0---0---0---0--0-----------------------5----|
D|-5/7--10--10/12--10--12--12/14--14\12--12\10\7-7-5-7------|
A|----------------------------------------------------------|
E|----------------------------------------------------------|

e|----------------------------------------------------------|
B|-----------10-----10--------------------------------------|
G|-5------------9------9---------------------9---9-7----7-7-|
D|--7-----10-------------10-10-10-10-9-9-7-7---7------7-----|
A|---7--8---------8-----------------------------------------|
E|----------------------------------------------------------|

e|----------------------------------------------------------|
B|----------------------------------------------------0-0---|
G|-9---9-7----7---7---5----5---5--7------7------------4-4---|
D|---7------7---7---7----7---7------5h7----5-7---7-0--5-5---|
A|---------------------------------------------5------------|
E|----------------------------------------------------------|

e|----------------------------------------------------------|
B|--------0-------0-0-0-0-----------------------------------|
G|---4----4----4--4-4-4-0-----------------------------------|
D|-7---7--5--7----5-5-5-5-----------------------------------|
A|----------------------------------------------------------|
E|----------------------------------------------------------|


Chorus
==============================================================

e|-x--5-x-5-x---5-55-------3---3---3---3-33-000--|
B|-x--5-x-5-x-5-5-55-------3---3---3---3-33-000--|
G|-x5-5-x-5-x-5-5-55-------4-x-4---4---4-44-000--|
D|-x3-3-3-3-x-3-3-33-------5-x-5-5-5-x-5-55-222--|
A|-------------------222---5-x-5-5-5-x-5-55-222--|
E|-------------------000-3-3-x-3-3-3-3-3-33-000--|

e|-x--5-x-5-x---5-55-------3---3---3---3/6\3---x-3--|
B|-x--5-x-5-x-5-5-55-------3---3---3---3/6\3---x-3--|
G|-x5-5-x-5-x-5-5-55-------4-x-4---4---4/7\4-4-x-4--|
D|-x3-3-3-3-x-3-3-33-------5-x-5-5-5-x-5/8\5-5-x-5--|
A|-------------------2x2---5-x-5-5-5-x-5/8\5-5-x-5--|
E|-------------------0x0-3-3-x-3-3-3-3-3/6\3-3-x-3--|


Outro
==============================================================

e|-0---0--1---0---0--1---0---0--------5--|
B|-0---0--1---0---0--1---0---0-------5---|
G|-0---2--3---0---2--3---0---2------5----|
D|-2---2--3---2---2--3---2---2-----7-----|
A|-3---0--3---3---0--3---3---0----7------|
E|--------1----------1-----------5-------|
Comments