Incubus - Talk Show On Mute Chords & Tabs

 

Talk Show On Mute Chords & Tabs

Incubus Chords & Tabs

Version: 1 Type: Tab 0 ratings
1 star 2 stars 3 stars 4 stars 5 stars
comments

Talk Show On Mute Tab

tabbed by max.s.

this is quite a strange song for incubus to do, its like something
sugar ray would play on their new albums. it's still good though

verse

---------------------------------------------------------------
---------------------------------------------------------------
-------------0---------------0--------------0---------------4--
---2-2-0-2----2----2-2-0-2----2---2-2-2-2----2---2-2-2-2----5--
---3-3-3-3-3---3---3-3-3-3-3---3--0-0-0-0-0---0--0-0-0-0-0--x--
------------------------------------------------------------3--

chorus
[ Tab from: http://www.guitartabs.cc/tabs/i/incubus/talk_show_on_mute_tab.html ]
-5---------5----------
-5---------5----------
-5--4------5--4-3-4---
-3--5------3--5-3-5---
----5---------5-1-5---
----3--0h1----3---3---

verse, which then changes to single strum
of these chords:

---0---0----
---0---0----
---0---2----
---2---2----
---3---0----
------------

chorus

little solo thing

---------------------------------------------------
---------------------------------------------------
---------------------------------------------0-----
------------5---5-7-7-5---7-7-5-7-10-7-5-7-5---5---
---5/7--5h7---7--------7---------------------------
---------------------------------------------------

don't know the rest of the solo (i'm crap at tabbing them)
after it, it's just the chorus and then the verse.
Comments