Incubus - Take Me To Your Leader Chords & Tabs

 

Take Me To Your Leader Chords & Tabs

Incubus Chords & Tabs

Version: 3 Type: Tab 0 ratings
1 star 2 stars 3 stars 4 stars 5 stars
comments

Take Me To Your Leader Tab

guitar:1                                       repeat x times      
e--------------------------------------------------------------|
b------------12-12------------12-12-12-------------------------|
g------10-10------------10-10----------------------------------|
d--9-9--------------9-9----------------------------------------|
a--------------------------------------------------------------|
e--------------------------------------------------------------|

guitar:2
                                   vibrator 
e---------------------------------------------------------------
b----------------------------------12///------------------------
g-------------------------------4--4----------------------------
d-------------------------------4--4----------------------------
a-------------------------------2--2----------------------------
e-------------------------------2--2---------------------------

bas:  repeat          repeat
g----------|----------------|----------------------------------
d----------|----------------|---------------------------------
a----------|----------------|--------------------------------
d--0-0-----|----5-4--2-4-5--|------------------------------------
guiter:1
                                                repeat 4x
e---15-14-13-12--------------------------------------------------|
b---------------15-14-13-12-11--11-------------------------------|
g-------------------------------12-------------------------------|
d----------------------------------------------------------------|
a----------------------------------------------------------------|
e----------------------------------------------------------------|


guiter:2
                                                   repeat 4x  
e--------------------------------------------------------------
b--------------------------------------------------------------
g-------6---7---6---------6---10---6---------------------------
d---5---6---7---6-----5---6---10---6---------------------------
a---5---4---5---4-----5---4---12---4---------------------------
e---3---4---5---4-----3---4---12---4---------------------------


bas:
                                             repeat 4x
g------------------------------------------------------
d----------------5-------------------------------------
a-----4-5-4----4---4-----------------------------------
e---5--------5-----------------------------------------


guitar:1

e--------------------------------------------------------------
b--------------------------------------------------------------
g--7--6--5--6--7--6--5--6--------------------------------------
d--7--6--5--6--7--6--5--6--------------------------------------
a--5--4--3--4--5--4--3--4--------------------------------------
e--5--4--3--4--5--4--3--4--------------------------------------



bas:
g---------------------------------------------------------|
d---------------------------------------------------------|
a----5-4-3-4-5--------------------------------------------|
e---------------------------------------------------------|
guitar:1

     repeat 2,5x               
e----------------|----------------|
b----------------|----------------|
g--5-4-4--5-4-4--|--5\3-----------|
d--5-4-4--5-4-4--|--5\3-----------|
a--3-2-2--3-2-2--|--4\3-----------|
e--3-2-2--3-2-2--|--4\3-----------|

bas:
g----------------|----------------|
d----------------|----------------|
a-3--2-2--3--2-2-|--3\2-----------|
e----------------|----------------|

 


guitar:1
e--------------------------------------------------------------
b--------------------------------------------------------------
g--4-4-4-4-5-5-5-5-6-6-6-6-7-7-7-7-----------------------------
d--4-4-4-4-5-5-5-5-6-6-6-6-7-7-7-7-----------------------------
a--2-2-2-2-3-3-3-3-4-4-4-4-5-5-5-5-----------------------------
e--2-2-2-2-3-3-3-3-4-4-4-4-5-5-5-5-----------------------------

[ Tab from: http://www.guitartabs.cc/tabs/i/incubus/take_me_to_your_leader_tab_ver_3.html ]
g---------------------------------------------------------------
d---------------------------------------------------------------
a---2-2-2-2-3-3-3-3-4-4-4-4-5-5-5-5-----------------------------
e---------------------------------------------------------------

guitar:1                                           repeat 4x
e-----------------------------------------------------------|
b-------------------------------7-10-7---12\\---------------|
g-------7--------------------7------------------------------|
d----9-----9-7--6--7-6----9---------------------------------|
a-----------------------------------------------------------|
e-----------------------------------------------------------|

bas:                             repeat 4x
g----x-4-x-2-1-2-1--x-4-2-1-2-4------------------------------
d------------------------------------------------------------
a-------------------------------------------------------------
e------------------------------------------------------------


guitar:1                                             repeat 8x
e--------------------------------------------------------------|
b--------------------------------------------------------------|
g--4-4-4-4-5-5-5-5-6-6-6-6-7-7-7-7-----------------------------|
d--4-4-4-4-5-5-5-5-6-6-6-6-7-7-7-7-----------------------------|
a--2-2-2-2-3-3-3-3-4-4-4-4-5-5-5-5-----------------------------|
e--2-2-2-2-3-3-3-3-4-4-4-4-5-5-5-5-----------------------------|

bas:
g---------------------------------------------------------------
d---------------------------------------------------------------
a---2-2-2-2-3-3-3-3-4-4-4-4-5-5-5-5-----------------------------
e---------------------------------------------------------------


guitar:2                                       repeat 8x      
e--------------------------------------------------------------|
b------------12-12------------12-12-12-------------------------|
g------10-10------------10-10----------------------------------|
d--9-9--------------9-9----------------------------------------|
a--------------------------------------------------------------|
e--------------------------------------------------------------|


bas:  repeat          repeat
|----------------|
|----------------|
|----------------|
|----5-4--2-4-5--|

guitar:1

     repeat 2,5x          repeat ?x  
e----------------|----------------|
b----------------|----------------|
g--5-4-4--5-4-4--|--5\3-----------|
d--5-4-4--5-4-4--|--5\3-----------|
a--3-2-2--3-2-2--|--4\3-----------|
e--3-2-2--3-2-2--|--4\3-----------|


bas:
g----------------|----------------|
d----------------|----------------|
a-3--2-2--3--2-2-|--3\2-----------|
e----------------|----------------|


take Me to Your Leader
What if your brain, unexpectedly and suddenly, picked out things to flip around
and view a lot differently?
What if blue sky, all of a sudden turned a purple hue?
We would shit a brick the size of all of it... what if?
What if I was just dreaming?
What if I lived in a pear?
What if my watch read 4:20 every hour, every day?
You can bet your dollar I'd be happy!
I forgot to remember; I forgot to remember my pain.
Take me to your leader or die by the fly guy!
What if mothballs, hangin' around too close to microwaves, suddenly woke up and
said, "Take me to your leader or die by the fly guy!
He'll push ya' out, no wings attatched!"
Just do as I say, no mistake, he'll blow away.
What if I was just dreaming?
What if I lived in a pear?
What if I had a mustard drenched cucumber tied to my leg and I did not want my
pants to get dirty?
What if this, what if that?!
Go!
I forgot to remember; I forgot to remember my pain.
Take me to your leader or die by the fly guy!
I forgot to remember....PAIN!
My pain!
Forgot to inject my... cocaine!
Forgot to apply my rogaine!
Forgot to remember... my pain!
I never think, I never thought, oh maybe I'm insane!
I think I like being way the fuck outa' my brain!
I forgot to remember; I forgot to remember my pain.
Take me to your leader or die by the fly guy!
Comments