Incubus - Take Me To Your Leader Chords & Tabs

 

Take Me To Your Leader Chords & Tabs

Incubus Chords & Tabs

Version: 1 Type: Bass Tab 0 ratings
1 star 2 stars 3 stars 4 stars 5 stars
comments

Take Me To Your Leader Bass Tab

Incubus - Take Me To Your Leader
Fungus Amongus / Enjoy Incubus
Tabbed by Uniburn (uniburn182@hotmail.com)
 
Re-Tabbed by    (rza_lodown@hotmail.com)
I fixed a few riffs that didn't sound right I put a * next to the Riffs that I tabbed out
and edited.  I hope it sound right,  well it sounds right to me, so enjoy,  By the way 
INCUBUS rules!!
 
[ Tab from: http://www.guitartabs.cc/tabs/i/incubus/take_me_to_your_leader_btab.html ]
Intro/Riff 1
G:-----------------
D:-----------------
A:--5--4--2--------
E:-----------3-----
 
Riff 2
G:------------------
D:---------------5--
A:----4-5-4----4--4-
E:-3---------3------
 
Pre-Chorus
G:-----------------
D:-----------------
A:-5-4-3-4--5-4-3-4
E:-----------------
 
Chorus
G:--------------------------------------------------
D:--------------------------------------------------
A:-3--2-2-2--3--2-2-2--3-2-2--3--2-2-2--3--2-2-2--5-
E:--------------------------------------------------
 
Riff 3a
G:---------------*--4-2-1-2-1-2\\1--*--------------
D:-------------------------------------------------
A:-2-2-4-4-5---2-2-----------------2-2---2-2-4-4-5-
E:-------------------------------------------------
 
Riff 3b
G:----------------------------------
D:----------------------------------
A:*-2-2-4-4-5--2-2--2-2-4-4-5--2-2-*
E:----------------------------------
 
Intro/Riff 1 X8
      Riff 2 X4
  Pre-Chorus X1
      Chorus X4
Intro/Riff 1 X8
      Riff 2 X4
  Pre-Chorus X2
      Chorus X4
        rest
      Chorus X4
     Riff 3a X4
     Riff 3b X5      
      Chorus X4
        rest
      Chorus X4

Comments