Incubus - Stellar Chords & Tabs

 

Stellar Chords & Tabs

Incubus Chords & Tabs

Version: 7 Type: Tab 0 ratings
1 star 2 stars 3 stars 4 stars 5 stars
comments

Stellar Tab

Name: kevin augustine

Tabs: BAND: Incubus
SONG: Stellar
TRACK: 6
ALBUM: Make Yourself
TABBED BY: Kevin (tip_20@hotmail.com)
----------------------------------------------------------------

INTRO/VERSE (clean)
E|-----------------------------------------------|
B|----------5/7-7^-------------------------------|
G|----------4/6-6^--6^---------------------------|
D|-------6----------6^---6-----6-6---6-7---------|
A|-----4-------------------4-4-----7-------------|
E|-----------------------------------------------|

PRE-CHORUS (distorted)
E|-5-5-5--5-5-5-5--5-5--5-5-5--5--2-2-2--2-2-2-2--2-2--2-2-2-2-|
B|-5-5-5--5-5-5-5--5-5--5-5-5--5--2-2-2--2-2-2-2--2-2--2-2-2-2-|
G|-7-7-7--7-7-7-7--7-7--7-7-7--7--4-4-4--4-4-4-4--4-4--4-4-4-4-|
D|-7-7-7--7-7-7-7--7-7--7-7-7--7--4-4-4--4-4-4-4--4-4--4-4-4-4-|
A|-5-5-5--5-5-5-5--5-5--5-5-5--5--2-2-2--2-2-2-2--2-2--2-2-2-2-|
E|-5-5-5--5-5-5-5--5-5--5-5-5--5--2-2-2--2-2-2-2--2-2--2-2-2-2-|

CHORUS (distorted)
E|-------------------------------------------------------------|
B|-------------------------------------------------------------|
G|-------------------------------------------------------------|
D|-7--7-7-7---7-----6-6---6-7------7--7-7-7---7-----6-6---6-7--|
A|-7--7-7-7---7-4-4-----7----------7--7-7-7---7-4-4-----7------|
E|-5--5-5-5---5--------------------5--5-5-5---5----------------|

E|-------------------------------------------------------------|
B|-------------------------------------------------------------|
G|-------------------------------------------------------------|
D|-7--7-7-7---7-----6-6---6-7------7--7-7-7---7-----6-6---6-7--|
A|-7--7-7-7---7-4-4-----7----------7--7-7-7---7-4-4-----7------|
E|-5--5-5-5---5--------------------5--5-5-5---5----------------|

BRIDGE (clean w/heavy reverb)
E|-----------------------------------------------------|
B|-----------------------------------------------------|
G|----9/11-11------11\6-6------9/11-11------11\6-6-----|
D|--9-9/11-11---11-11\6-6----9-9/11-11---11-11\6-6-----|
A|-----------------------------------------------------|
E|-----------------------------------------------------|

CHORUS (distorted)
E|-------------------------------------------------------------|
B|-------------------------------------------------------------|
G|-------------------------------------------------------------|
D|-7--7-7-7---7-----6-6---6-7------7--7-7-7---7-----6-6---6-7--|
A|-7--7-7-7---7-4-4-----7----------7--7-7-7---7-4-4-----7------|
E|-5--5-5-5---5--------------------5--5-5-5---5----------------|

E|-------------------------------------------------------------|
B|-------------------------------------------------------------|
G|-------------------------------------------------------------|
D|-7--7-7-7---7-----6-6---6-7------7--7-7-7---7-----6-6---6-7--|
A|-7--7-7-7---7-4-4-----7----------7--7-7-7---7-4-4-----7------|
E|-5--5-5-5---5--------------------5--5-5-5---5----------------|
[ Tab from: http://www.guitartabs.cc/tabs/i/incubus/stellar_tab_ver_7.html ]
E|-------------------------------------------------------------|
B|-------------------------------------------------------------|
G|--------------6-6-----------------------------6-6------------|
D|-7--7-7-7---7-6-6-6-6---6-7------7--7-7-7---7-6-6-6-6---6-7--|
A|-7--7-7-7---7-4-4-6-6---6-7------7--7-7-7---7-4-4-6-6---6-7--|
E|-5--5-5-5---5-----4-4-0-4-5------5--5-5-5---5-----4-4-0-4-5--|

INTERLUDE (clean w/phaser)
E|-------------------------------------------------------------|
B|-------------------------------------------------------------|
G|---------------------------4-------------------------------4-|
D|-----0---------0---------0-0---------2---------2---------0-0-|
A|---7---7-7---7---7-7---5---5---5---2---2-2---2---2-2---5---5-|
E|-5---------5---------3-----3-----0---------0---------3-----3-|

E|-------------------------------------------------------------|
B|-------------------------------------------------------------|
G|---------------------------4-------------------------------4-|
D|-----0---------0---------0-0---------2---------2---------0-0-|
A|---7---7-7---7---7-7---5---5---5---2---2-2---2---2-2---5---5-|
E|-5---------5---------3-----3-----0---------0---------3-----3-|

OUTRO (distorted)
E|-------------------------------------------------------------|
B|-------------------------------------------------------------|
G|-------------------------------------------------------------|
D|--5-5-5-5-5-5-5-5-5-5-5-5--------7--7-7-7---7-----6-6---6-7--|
A|--5-5-5-5-5-5-5-5-5-5-5-5--------7--7-7-7---7-4-4-----7------|
E|--3-3-3-3-3-3-3-3-3-3-3-3--------5--5-5-5---5----------------| 
  pm.........
E|-------------------------------------------------------------|
B|-------------------------------------------------------------|
G|-------------------------------------------------------------|
D|-7--7-7-7---7-----6-6---6-7------7--7-7-7---7-----6-6---6-7--|
A|-7--7-7-7---7-4-4-----7----------7--7-7-7---7-4-4-----7------|
E|-5--5-5-5---5--------------------5--5-5-5---5----------------|

E|-------------------------------------------------------------|
B|-------------------------------------------------------------|
G|----------------------------------------------6-6------------|
D|-7--7-7-7---7-----6-6---6-7------7--7-7-7---7-6-6-6-6---6-7--|
A|-7--7-7-7---7-4-4-----7----------7--7-7-7---7-4-4-6-6---6-7--|
E|-5--5-5-5---5--------------------5--5-5-5---5-----4-4-0-4-5--|

E|-------------------------------------------------------------|
B|-------------------------------------------------------------|
G|--------------6-6-----------------------------6-6------------|
D|-7--7-7-7---7-6-6-6-6---6-7------7--7-7-7---7-6-6-6-6---6-7--|
A|-7--7-7-7---7-4-4-6-6---6-7------7--7-7-7---7-4-4-6-6---6-7--|
E|-5--5-5-5---5-----4-4-0-4-5------5--5-5-5---5-----4-4-0-4-5--|

E|-------------------------------------------------------------|
B|-------------------------------------------------------------|
G|--------------6-6--------------6-6---------------------------|
D|-7--7-7-7---7-6-6-6-6---6-7----6-6-6-6---6-7---6-------------|
A|-7--7-7-7---7-4-4-6-6---6-7----4-4-6-6---6-7---7-------------|
E|-5--5-5-5---5-----4-4-0-4-5--------4-4-0-4-5---5-------------|

Thats it the correct version.if you have any questions e-mail me.

Comments