Incubus - Stellar Chords & Tabs

 

Stellar Chords & Tabs

Incubus Chords & Tabs

Version: 6 Type: Tab 0 ratings
1 star 2 stars 3 stars 4 stars 5 stars
comments

Stellar Tab

   

 ill start with this song, ill post the others later.

Artist: Incubus
Song: Stellar (complete)
Transcribed by: Fernando A. Dominguez  Patino > dominguez_fer@hotmail.com

hi. i think this is a great song and nobody has tabbed it correctly. i think this tab is almost perfect. its very important that u hear the song because im not going to put the timing and the times u repeat each part.

 NORMAL TUNING

b > bend           

> INTRO...clean
----------------------------------------------------------------------------------------------------------
----------------------------------------------------------------------------------------------------------
------9--9/-11b-/-6b----------------------------------- 9--9/-11b-/-6b-----------------------------
------9--9/-11b-/-6b--6---------6--6-----6--7--------9--9/-11b-/-6b--6--------6--6--------6---
---0-------------------------4--4---------5------------0------------------------4--4--------7--7------
----------------------------------------------------------------------------------------------------------

> PRECHORUS....with distortion
-----------                                     -----------
-----------                                     -----------
-----7----                                      -----8----
-----7---- ...........                          -----9---- ............
-----5----                                      -----7----
-----5----                                      -----7----

> CHORUS 1......heavy distortion
---------------------------------------------------------------------------------------
---------------------------------------------------------------------------------------
---------------------------------------------------------------------------------------
---7---7-7-7-7---------6--6-----6--7------7---7-7-7-7---------6--6--------6----
---7---7-7-7-7--4--4---------5-------------7---7-7-7-7--4--4--------7--7-------
---5---5-5-5-5-------------------------------5---5-5-5-5--------------------------
[ Tab from: http://www.guitartabs.cc/tabs/i/incubus/stellar_tab_ver_6.html ]
> BRIDGE ....it sounds good clean or distorted
-------------------------------
-------------------------------
------9/-11---------9/-6----
------9/-11---------9/-6----
---0--------------0-----------
-------------------------------

> INTERLUDE......i think they use auto wah but slight distortion sounds great
--------------------------------------------------------------------------------------------------------------------------------------------
-------------------------------------------------------------------------------------------------------------------------0------------------
-------------------------------------------------------------------------------------------------------------------------0------------------
---------0--0--------------0--0-----------------0--0--------0---------2--2---------------2--2----------------7-----4----------7-----5
------7--------7--------7--------7-----------5--------5-----5------2--------2---------2--------2---------5------5--7------5-----5--5
---5--------------5--5--------------5/3--3---------------3--3--0---------------0--0---------------0--3-----------------3------------3

> CHORUS 2........at the end of the song the chorus changes.....heavy distortion
-----------------------------------------------------------------------------------------
-----------------------------------------------------------------------------------------
----------------------------------------------------------------6-6---------------------
---7---7-7-7-7---------6--6-----6--6--------7---7-7-7-7--6-6--6-6--0--6/-7-----
---7---7-7-7-7--4--4---------5---------------7---7-7-7-7--4-4--6-6--0--6/-7-----
---5---5-5-5-5---------------------------------5---5-5-5-5-------4-4--0--4/-5------

------------------------------------------------------------------------------------------
------------------------------------------------------------------------------------------
----------------------------------------------------------------6-6-----------------------
---7---7-7-7-7---------6--6---------6--------7---7-7-7-7--6-6--6-6--0--6/-7------
---7---7-7-7-7--4--4---------7--7------------7---7-7-7-7--4-4--6-6--0--6/-7-----
---5---5-5-5-5---------------------------------5---5-5-5-5--------4-4--0--4/-5-----


ok thats all. hope u get it. credits go to incubusonline.com and Brad Porter. email if u have comments, suggestions, etc. 

later.
Comments