Incubus - Stellar Acoustic Chords & Tabs

 

Stellar Acoustic Chords & Tabs

Incubus Chords & Tabs

Version: 3 Type: Tab 0 ratings
1 star 2 stars 3 stars 4 stars 5 stars
comments

Stellar Acoustic Tab

   
**************************************************
Song         : "STELLAR" (Acoustic Version)
Artist       : INCUBUS  
[ Tab from: http://www.guitartabs.cc/tabs/i/incubus/stellar_acoustic_tab_ver_3.html ]
Transcribe by: Jay Antonio (bichboy_99@yahoo.com)
Guitar Tuning: Dropped D (d-A-D-G-B-E)
**************************************************
VERSE 1:
E|------------------------------------------------|
B|------------------------------------------------|
G|-------9S11--11S9--9S6--------------------------|
D|----9--9S11--11S9--9S6---------6--6-----6--7----|
A|--0----------------------4--4--------5----------|
d|------------------------------------------------|
	 meet me in .......
E|------------------------------------------------|
B|------------------------------------------------|
G|-------9S11--11S9--9S6--------------------------|
D|----9--9S11--11S9--9S6---------6--6--------6----|
A|--0----------------------4--4--------7--7-------|
d|------------------------------------------------|
keep repeating
E|--0---0---0---0-----0---0---0---0---------------|
B|--0---0---0---0-----0---0---0---0---------------|
G|--2---2---2---2-----4---4---4---4---------------|
D|--2---2---2---2-----4---4---4---4---------------|
A|--0---0---0---0-----2---2---2---2---------------|
d|------------------------------------------------|
    again.......         how do you do........
CHORUS:
E|--0---0---0---0---0-----------------------------|
B|--0---0---0---0---0-----------------------------|
G|--2---2---2---2---2-----------------------------|
D|--2---2---2---2---2----------6--6--------6------|
A|--0---0---0---0---0----4--4--------7--7---------|
d|------------------------------------------------|
    it.........          make me feel....
E|--0---0---0---0---0-----------------------------|
B|--0---0---0---0---0-----------------------------|
G|--2---2---2---2---2-----------------------------|
D|--2---2---2---2---2----------6--6-----6--7------|
A|--0---0---0---0---0----4--4--------5------------|
d|------------------------------------------------|
REPEAT
		~   		   ~~
E|------------------------------------------------|
B|------------------------------------------------|
G|-----------9S11---------------------9S6---------|
D|-----------9S11---------------------9S6---------|
A|--0--0--0------------------0--0--0--------------|
d|------------------------------------------------|
VERSE 2:
E|------------------------------------------------|
B|------------------------------------------------|
G|-------9S11--11S9--9S6--------------------------|
D|----9--9S11--11S9--9S6---------6--6--------6----|
A|--0----------------------4--4--------7--7-------|
d|------------------------------------------------|
         meet me in .......
E|------------------------------------------------|
B|------------------------------------------------|
G|-------9S11--11S9--9S6--------------------------|
D|----9--9S11--11S9--9S6---------6--6-----6--7----|
A|--0----------------------4--4--------5----------|
d|------------------------------------------------|
keep repeating
E|--0---0---0---0-----0---0---0---0---------------|
B|--0---0---0---0-----0---0---0---0---------------|
G|--2---2---2---2-----4---4---4---4---------------|
D|--2---2---2---2-----4---4---4---4---------------|
A|--0---0---0---0-----2---2---2---2---------------|
d|------------------------------------------------|
    again.......         how do you do........
CHORUS:
E|--0---0---0---0---0-----------------------------|
B|--0---0---0---0---0-----------------------------|
G|--2---2---2---2---2-----------------------------|
D|--2---2---2---2---2----------6--6--------6------|
A|--0---0---0---0---0----4--4--------7--7---------|
d|------------------------------------------------|
    it.........          make me feel....
E|--0---0---0---0---0-----------------------------|
B|--0---0---0---0---0-----------------------------|
G|--2---2---2---2---2-----------------------------|
D|--2---2---2---2---2----------6--6-----6--7------|
A|--0---0---0---0---0----4--4--------5------------|
d|------------------------------------------------|
REPEAT
 
E|--0---0---0---0---0-----------------------------|
B|--0---0---0---0---0-----------------------------|
G|--2---2---2---2---2-----6--6--------------------|
D|--2---2---2---2---2-----6--6--6--6---2--2---6---|
A|--0---0---0---0---0-----4--4--6--6---2--2---6---|
d|------------------------------6--6---2--2---6---|
E|--0---0---0---0---0-----------------------------|
B|--0---0---0---0---0-----------------------------|
G|--2---2---2---2---2-----6--6--------------------|
D|--2---2---2---2---2-----6--6--6--6---2--2---6---|
A|--0---0---0---0---0-----4--4--6--6---2--2---6---|
d|------------------------------6--6---2--2---6---|
 
BRIDGE:
E|--------------------------------------------------------------------------------0-0-0-|
B|--------------------------------------------------------------------------------0-0-0-|
G|--------------------------------------------------------------------------------0-0-0-|
D|------0-0---------0-0---------0---0----0--0--0-------3-3---3---3---3-------5----5-5-5-|
A|----7-----7-----7-----7-----5----------5--5--5-----3---------------------5------5-5-5-|
d|--7---------7-7---------7S5-----5------5--5--5---3-------3---3---3-----5-----5--5-5-5-|
REPEAT
CHORUS:
E|--0---0---0---0---0-----------------------------|
B|--0---0---0---0---0-----------------------------|
G|--2---2---2---2---2-----------------------------|
D|--2---2---2---2---2----------6--6--------6------|
A|--0---0---0---0---0----4--4--------7--7---------|
d|------------------------------------------------|
    it.........          make me feel....
E|--0---0---0---0---0-----------------------------|
B|--0---0---0---0---0-----------------------------|
G|--2---2---2---2---2-----------------------------|
D|--2---2---2---2---2----------6--6-----6--7------|
A|--0---0---0---0---0----4--4--------5------------|
d|------------------------------------------------|

E|--0---0---0---0---0-----------------------------|
B|--0---0---0---0---0-----------------------------|
G|--2---2---2---2---2-----6--6--------------------|
D|--2---2---2---2---2-----6--6--6--6---2--2---6---|
A|--0---0---0---0---0-----4--4--6--6---2--2---6---|
d|------------------------------6--6---2--2---6---|

E|--0---0---0---0---0-----------------------------|
B|--0---0---0---0---0-----------------------------|
G|--2---2---2---2---2-----6--6--------------------|
D|--2---2---2---2---2-----6--6--6--6---2--2---6---|
A|--0---0---0---0---0-----4--4--6--6---2--2---6---|
d|------------------------------6--6---2--2---6---|

E|---------------------------------------------------0--|
B|---------------------------------------------------0--|
G|--6--6--------------------6--6---------------------2--|
D|--6--6--6--6--2--2---6----6--6--6--6--2--2---6-----2--|
A|--4--4--6--6--2--2---6----4--4--6--6--2--2---6-----0--|
d|--------6--6--2--2---6----------6--6--2--2---6--------|
 
Comments