Incubus - Stellar Acoustic Chords & Tabs

 

Stellar Acoustic Chords & Tabs

Incubus Chords & Tabs

Version: 2 Type: Tab 0 ratings
1 star 2 stars 3 stars 4 stars 5 stars
comments

Stellar Acoustic Tab

name=Jeremy Burgess
band=Incubus
song=Stellar (acoustic)
inst_type=Guitar
body=Artist: Incubus
Song: Stellar (acoustic)
Album: When Incubus Attacks Vol. 1
E-Mail: beefynerd@www.com
Tabbed by Jeremy Burgess

This song is fairly simple once you get it, and it sounds almost just like the regular version.  Here it is.

s = slide

Verses:

E|--------------------------------
B|---5s7s5------------------------
G|---4s6s4------------------------
D|---------6-----6-6---6-7--------
A|-0---------4-4-----7------------
E|--------------------------------

Pre-chorus:

E|---------------------------------------------------------------
B|---------------------------------------------------------------
G|-7-7-7-7-7-7-7-7-7-7-7-7-4-4-4-4-4-4-4-4-4-4-4-4---------------
D|-7-7-7-7-7-7-7-7-7-7-7-7-4-4-4-4-4-4-4-4-4-4-4-4---------------
A|-5-5-5-5-5-5-5-5-5-5-5-5-2-2-2-2-2-2-2-2-2-2-2-2---------------
E|---------------------------------------------------------------

Chorus (1st time through):
[ Tab from: http://www.guitartabs.cc/tabs/i/incubus/stellar_acoustic_tab_ver_2.html ]
E|-------------------------------------
B|-------------------------------------
G|-------------------------------------
D|-7-7-7-7-7-7-6-----6-6---6-7---------
A|-7-7-7-7-7-7---4-4-----7-------------
E|-5-5-5-5-5-5-------------------------

The chorus is the same the 2nd time except at the end of the riff you play this instead:

E|-----------------------
B|-----------------------
G|-----------------------
D|-7-6-6-4-4-2-6-7-------
A|-7-6-6-4-4-2-6-7-------
E|-5-4-4-2-2-0-4-5-------

"You are stellar" (play twice):

E|-----------------------------------------------------------------------------
B|-------------------------------------------------------------------------5---
G|-------------------------------------------------------------------------4---
D|-----0-0---------0-0---------0-0---0---0-------2-2---------2-2---------2-2---
A|---0-----0-----0-----0-----0-----0---0---0---2-----2-----2-----2-----2-------
E|-5---------5-5---------5-0-----------------0---------0-0---------0-5---------

Thats the whole song.  E-mail me if you have any questions.
Comments