Incubus - Stellar Acoustic Chords & Tabs

 

Stellar Acoustic Chords & Tabs

Incubus Chords & Tabs

Version: 1 Type: Tab 1 rating
1 star 2 stars 3 stars 4 stars 5 stars
comments

Stellar Acoustic Tab

   
Song: Steller Acoustic
Band: Incubus
Tab by WUSHU

Chords:

A D B
0----
0----
2-7-8
2-7-9
0-5-9
----7

Verse: 
note: switch order in second verse

-------------------------------|-------------------------------
---5/7-7/5-5/2-----------------|---5/7-7/5-5/2-----------------
---4/6-6/4-4/1-----------------|---4/6-6/4-4/1-----------------
---------------6-----6-6---6-7-|---------------6-----6-6-------
-0---------------4-4-----5-----|-0---------------4-4-----7-6-7-
-------------------------------|-------------------------------

pre chorus:

D      B


Chorus:

A                         A 
-0-0-0-0-0---------------|-0-0-0-0-0---------------
-0-0-0-0-0---------------|-0-0-0-0-0---------------
-2-2-2-2-2---------------|-2-2-2-2-2---------------
-2-2-2-2-2-----6-6-------|-2-2-2-2-2-----6-6---6-7-
-0-0-0-0-0-4-4-----7-6-7-|-0-0-0-0-0-4-4-----5-----
-------------------------|-------------------------
[ Tab from: http://www.guitartabs.cc/tabs/i/incubus/stellar_acoustic_tab.html ]
sometimes this happens instead

A
-0-0-0-0-0---------------
-0-0-0-0-0---------------
-2-2-2-2-2---------------
-2-2-2-2-2-6-6-----------
-0-0-0-0-0-4-4-6-6-6-6-6-
---------------4-4-0-4-5-

Bridge:

------------------------------|-------------------------|
------------------------------|-------------------------|
------------------------------|-------------------------|
-----2-0-0-2--------2-0-0-2---|---0---0---0-0-0-0-0-0---|
-0-0---------0--0-0---------0-|-------------------------|
------------------------------|-3---3-3---------------3-|

-------------------------|---------0-|
-------------------------|---------3-|
-------------------------|---------2-|
-----2-2---------2-2-----|---0-0---0-|
---2-----2-----2-----2---|---------x-|
-0---------0-0---------0-|-3-----3-3-|

Ending:

---------------------------------0-|
---------------------------------0-|
---------------------------------2-|
-6-6-------------6-6-------------2-|
-4-4-6-6-6-6-6---4-4-6-6-6-6-6---0-|
-----4-4-0-4-5-------4-4-0-4-5-----|

lites out
Comments