Incubus - Southern Girl Chords & Tabs

 

Southern Girl Chords & Tabs

Incubus Chords & Tabs

Version: 4 Type: Tab 0 ratings
1 star 2 stars 3 stars 4 stars 5 stars
comments

Southern Girl Tab

   
Song: Southern Girl
Band: incubus
Album: A crow left of the murder 
Tabbed by: Olivar Brito, Coimbra (Portugal) olivar@iol.pt 
25/02/2004 3:01


Intro:

       Am G/A    C  E       Am G/A    C  F    E/F
e|------5--5-----3--0--------5--5-----3--0-----0--------|
B|------5--5-----0--0--------5--5-----0--0-----0--------|
G|------5--0-----0--1--------5--0-----0--2---sb1--------|     (2x)
D|------7--0-----2--2--------7--0-----2--3---sb2--------|
A|------7--x--0-3---2--------7--x--0-3---3--3sb2--------|
E|--0--5---4----------1-1-0-5---4--------1-1---1^0-0----|


Main:

(Is everything baited hook...)

       Am G/A    C  E        Am G/A    C  F   E/F
e|------5--5-----3--0---------5--5-----3--0-----0--------|
B|------5--5-----0--0---------5--5-----0--0-----0--------|
G|------5--0-----0--1---------5--0-----0--2---sb1--------|     (4x)
D|------7--0-----2--2---------7--0-----2--3---sb2--------|
A|------7--x--0-3---2---------7--x--0-3---3--3sb2--------|
E|--0--5---4----------1-1-0--5---4--------1-1---1^0-0----|


Pre-refrain and solo accompaniment (whithout arpeggio:

(we'll behave like animals...)
[ Tab from: http://www.guitartabs.cc/tabs/i/incubus/southern_girl_tab_ver_4.html ]
    D  Am        G         Dm        Am        G         F  E  G  
e|--5--5----5----3----3----5----5----5----5----3----3----0-----3--|
B|--5--5--5--5---3--3--3---6--6--6---5--5--5---3--3--3---0-----3--|
G|--7--5-5-5--5--4-4-4--4--7-7-7--7--5-5-5--5--4-4-4--4--2--1--4--|
D|--7--7---------5---------7---------7---------5---------3--2--5--|
A|--5--7---------5---------5---------7---------5---------3--2--5--|
E|--5--5---------3---------5---------5---------3---------1--0--3--|


Refrain:

(you're an exception to the rule...)

       Am G/A    C  E        Am G/A    C  F    E/F
e|------5--5-----3--0---------5--5-----3--0-----0--------|
B|------5--5-----0--0---------5--5-----0--0-----0--------|
G|------5--0-----0--1---------5--0-----0--2---sd1--------| 
D|------7--0-----2--2---------7--0-----2--3---sd2--------|
A|------7--x--0-3---2---------7--x--0-3---3--3sd2--------|
E|--0--5---4----------1-1-0--5---4--------1-1---1^0-0----|


       Am G/A    C  E        F  E  G
e|------5--5-----3--0--------0--0--3---|
B|------5--5-----0--0--------0--0--3---|
G|------5--0-----0--1--------2--1--4---| 
D|------7--0-----2--2--------3--2--5---|
A|------7--x--0-3---2--------3--2--5---|
E|--0--5---4----------1-1-0--1--0--3---|


End:

(southern girl could you want me...)

    F  E                            F      E
e|--0--0--0--0-1-0--|           e|--0------0--------|
B|--0--0---0----0---|           B|---0------0-------|
G|--2--1----1-------|   (4x)    G|----2------1------|
D|--3--2------------|           D|-----3------2-----|
A|--3--2------------|           A|------3------2----|
E|--1--0------------|           E|-------1------0---|


sd- slide down
 ^- pull

This beautiful song is not hard to play, but sometimes the guitar rhythm is not
easy to tab... hope you understand my idea... if you know well the song and if
you like it as i do it will be no problem, enjoy!
Comments