Incubus - Southern Girl Chords & Tabs

 

Southern Girl Chords & Tabs

Incubus Chords & Tabs

Version: 3 Type: Tab 0 ratings
1 star 2 stars 3 stars 4 stars 5 stars
comments

Southern Girl Tab

Artist: Incubus
Song: Southern Girl
Album: A Crow Left of the Murder
Tabbed by: Mike Armstrong (armst137@msu.edu)
*Comments appreci-tated*
Enjoy!!


Riff 1 - Intro & Verse

|------5---5---------3------------------|-------5--5--------3-----------------|
|------5-------------3------------------|-------5-----------3-----------------|
|------5---4--------------1-------------|-------5--4--------------------------|
|----------5-----------------0----------|----------5--------------0-----------|
|----------3----0-3---------------------|----------3----0-3---------3---------| 
|--0-5---------------------------1-1-0--|--0-5------------------3------1-1^0-0|


Riff 2 - Prechorus

|-----------5-----5-------3-----3-------5-----5------|
|-1-1-1-1---5-5-----5-----3-3-----3-----6-6-----6----|
|-2-2-2-2---5---5-----5---4---4-----4---7---7-----7--|
|-3-3-3-3---7-------------5-------------5------------|
|-0-0-0-0--------------------------------------------|
|----------------------------------------------------|


|-5-----5--------3-----3-------------------0-0---3-3-3-|
|-5-5-----5------3-3-----3-----1-----1-----0-0---3-3-3-|
|-5---5-----5----4---4-----4---2-2-----2---1-1---4-4-4-|
|-7--------------5-------------3---3-------2-2---5-5-5-|
|------------------------------0-----------2-2---------|
|------------------------------------------0-0---------|
   ^ ^
   Listen to the song to get the rhythm for this part



Riff 3 - Chorus


|------5---5---------3------------------|-------5--5--------3-----------------|
|------5-------------3------------------|-------5-----------3-----------------|
|------5---4--------------1-------------|-------5--4--------------------------|
|----------5-----------------0----------|----------5--------------0-----------|
|----------3----0-3---------------------|----------3----0-3---------3---------| 
|--0-5---------------------------1-1-0--|--0-5------------------3------1-1^0-0|

[ Tab from: http://www.guitartabs.cc/tabs/i/incubus/southern_girl_tab_ver_3.html ]
|------5---5---------3------------------|----------------0-0-0---3-3-3--|
|------5-------------3------------------|--1-1-1-1-1-1---0-0-0---3-3-3--|
|------5---4--------------1-------------|--2-2-2-2-2-2---1-1-1---4-4-4--|
|----------5-----------------0----------|--3-3-3-3-3-3---2-2-2---5-5-5--|
|----------3----0-3---------------------|--0-0-0-0-0-0---2-2-2----------| 
|--0-5---------------------------1-1-0--|----------------0-0-0----------|






Solo

|-----------------------------------------------------------------------8--|
|-------------------------------------------8--10--8--10-----10-----10-----|
|-5^7-5--7-5^7---------------5--7--9--7--9----------------7------9---------|
|---------------5--5\2-2-2-------------------------------------------------|
|--------------------------------------------------------------------------|
|--------------------------------------------------------------------------|


|-----------------8----------------------------------------------------|
|-------8--10----------------------------------------------------------|
|-9--9---------9-----9-------7--5\4--4^5--4----------------------------|
|----------------------------------------------------------------------|
|--------------------------------------------5/7-----------------------|
|----------------------------------------------------------------------|


|------------------------------------------------------------------|
|------------------------------------------------------------------|
|-5-----7----------------------7--7/9--9---------------------------|
|----7-----7--5--7--5^7--5-----5--5/7--7---------------------------|
|---------------------------7--------------------------------------|
|------------------------------------------------------------------|

Riff 1 (Verse)

Riff 2 (Prechorus)

Riff 3 (Chorus) X2


Outro

|--3--|                                                     |--5--|
|--3--|                                                     |--5--|
|--4--|<--strum/arpeggiate this a bunch of times, then play:|--5--|    
|--5--|                                                     |--7--|
|-----|                                                     |-----|
|-----|                                                     |-----|

until the end of the song.


Thats it! This album came out 2 days ago and it's bad ass.
Play this one for some girls, then proceed to get ass!
Comments