Incubus - Southern Girl Chords & Tabs

 

Southern Girl Chords & Tabs

Incubus Chords & Tabs

Version: 1 Type: Tab 2 ratings
1 star 2 stars 3 stars 4 stars 5 stars
comments

Southern Girl Tab

this beautiful song is pretty simple in that there is one recurring chord pattern 
used for the intro, the verse and the chorus. the bridge in between im not
sure of but i think its pretty close. the solo is more or less right. 
then the ending is different again.  enjoy. 

INTRO/VERSE/CHORUS
------------5-----5--------5---------3----------------------
------------0-----0--------0---------1-----------------------
------------5-----5--------5---------0------1-------------------
--------------------------------------2------2----------------
--------0------------------------3-----------------------------
---0--------------3----3--------------------0---------1---1---

------------5-----5-------5------------3-------------------------------
------------0-----0-------0------------1-------------------------------
------------5-----5-------5------------0----------------0--------------
----------------------------------------2----------------0--------------
--------0-------------------------3-------------------------3-----------
---0--------------3----3--------------------0---1------------1--0--  

BRIDGE 
1-----1--------1----------------------------5-----------------------------3------
3-----3--------3------1--------------5--------5----------------3------------3---
2-----2--------2------2-----------------5--------5----------4------------------4
0-----0----0----------2---------7-------------------7----5----------5-----------
-----------------------0-----------------------------------------------------------
-----------------------------------------------------------------------------------

1------------------5------------------------------5-------------------------3---3
3-----------6--------6-------------------5------------5----------------3---------
2--------------7--------7------------5-------------------5----------4------------
0-------7------------------7-----7-----------7--------------7---5---------------
-----------------------------------------------------------------------------------
-----------------------------------------------------------------------------------

3------3-------3------------0------0---------3-----3----------------------------
1------1-------1------------0------0---------0-----0----------------------------
2------2-------2------------1------1---------0-----0----------------------------
3------3-------3------------2------2---------0-----0----------------------------
3------3-------3------------2------2---------2-----2----------------------------
1------1-------1------------0------0---------3-----3----------------------------
[ Tab from: http://www.guitartabs.cc/tabs/i/incubus/southern_girl_tab.html ]
SOLO
----------------------------------------------------------------------------------
----------------------------------------------------------------------------------
-----5-(h)-7---5------7-----7--------------------------------------------------7
------------------------------------5------5----5-(sl)-2------------------10----
----------------------------------------------------------------------------------
----------------------------------------------------------------------------------

-----------------------------------------------------------------------------------
------------------------------------------------------------8--8---8---8-(h)-10-
---9--------7---9-----------7----9---------7-----9------------------------------
-----------------------------------------------------------------------------------
-----------------------------------------------------------------------------------
-----------------------------------------------------------------------------------

-8-----------------------------8--------------------------------------------------
----------------8-(h)-10---------------------------------------------------------
-----9----9---------------9------9---7---5--4--4-(h/p) 5-----------------5---7-
-------------------------------------------------------------5---5-(sl)-7---------
-----------------------------------------------------------------------------------
-----------------------------------------------------------------------------------

----------------------------------------------------------------
----------------------------------------------------------------
--5-(h)--7--5-------------------------------------------------
-----------------7---5-(sl)--2---------------------------------
----------------------------------------------------------------
----------------------------------------------------------------

OUTRO
0-----0------------0----------------0-----0---------------0---2---------0-------
1-----1------1--------1-------------0-----0-----------------------------0--------
2-----2---------2--------2----------1-----1-----------1-------------------------
3-----3----3-----------------3------2-----2--------------------------------------
--------------------------------------2-----2-------2--------------2--------------
--------------------------------------0-----0--------------------------------------

0---0---------------------------------0---0----------------0---2----------0-------
0---0-----------------0---------------0---0-------------------------------0--------
1---1---------1-----------1-----------1---1-----------1---------------------------
2---2-------------2-----------2-------2---2---------------------------------------
2---2-----2-----------------------2---2---2------2-------------------2------------
0---0----------------------------------0---0----------------------------------------

0---0----------------------------------0----0-----------------0---------------0----l
0---0------------------0---------------1----1---------1----------1------------0---l
1---1---------1------------1-----------2----2------------2----------2---------1---l
2---2-------------2------------2-------3----3-----3---------------------2-----2----l
2---2----2-------------------------2--------------------------------------------2---l
0---0-----------------------------------1---1-----------------------------------0---l
Comments