Incubus - Southern Girl Chords & Tabs

 

Southern Girl Chords & Tabs

Incubus Chords & Tabs

Version: 1 Type: Bass Tab 0 ratings
1 star 2 stars 3 stars 4 stars 5 stars
comments

Southern Girl Bass Tab

   
Southern Girl by Incubus
Standard Tuning

(0:09) Intro
|------------------------------------------------------------------------|
|--------------------------------------3/5-3-----------------------------|
|------------3/5-3---------------3/5-3-------7-5-------------------------|
|---0--5--3--------0-1-1-0---5-3-----------------8-7-5-------------------|
[ Tab from: http://www.guitartabs.cc/tabs/i/incubus/southern_girl_btab.html ]
(0:20)
|------------------------------------------------------------------------|
|-------------------------------------3/5-3------------------------------|
|-----------3/5-3---------------3/5-3-------7-5--------------------------|
|--------3--------0-1-1-0---5-3-----------------8-7-5--------------------|
(0:30)
|------------------------------------------------------------------------|
|-------------------------------------3/5-3------------------------------|
|-----------3/5-3---------------3/5-3-------3-0--------------------------|
|--------3--------0-1-1-0---5-3------------------------------------------|
(0:39) Pre Chorus
|------------------------------------------------------------------------|
|---------------------7----------------------3/5-------------------------|
|-----5-5---5--7-8---------------------------------3-3-5-5-8-7-8---------|
|---------5--------5-----5-5-5-5-7-8-3-3-3-3-----3-----------------------|
(0:49)
|------------------------------------------------------------------------|
|---------7---------5----------------------------------------------------|
|------------------------------------------------------------------------|
|-----5-5---5-5-3-3---3-3-3-1-1-1-1-0-0-0-0-3-3-3------------------------|
(0:59) Chorus
|------------------------------------------------------------------------|
|-------------------------------------3/5-3------------------------------|
|-----------3/5-3---------------3/5-3-------7-5--------------------------|
|------5--3--------0-1-1-0---5-3-----------------8-7-5-------------------|
(1:10)
|------------------------------------------------------------------------|
|------------------------------------------------------------------------|
|-----------3/5-3--------------------------------------------------------|
|--------3--------0-1-1-0---1-1-1-1-1-0-0-0-0-3-3-3-3--------------------|
(1:19) Solo
|------------------------------------------------------------------------|
|---------------------7----------------------3/5-------------------------|
|-----5-5---5--7-8---------------------------------3-3-5-5-8-7-8---------|
|---------5--------5-----5-5-5-5-7-8-3-3-3-3-----3-----------------------|
(1:28)
|------------------------------------------------------------------------|
|---------7---------5----------------------------------------------------|
|------------------------------------------------------------------------|
|-----5-5---5-5-3-3---3-3-3-1-1-1-1-0-0-0-0-3-3-3------------------------|
(1:38) Verse
|------------------------------------------------------------------------|
|-------------------------------------3/5-3------------------------------|
|-----------3/5-3---------------3/5-3-------7-5--------------------------|
|-----5--3--------0-1-1-0---5-3-----------------8-7-5--------------------|
(1:48)
|------------------------------------------------------------------------|
|-------------------------------------3/5-3------------------------------|
|-----------3/5-3---------------3/5-3-------3-0--------------------------|
|--------3--------0-1-1-0---5-3------------------------------------------|
(1:58) Pre Chorus
|------------------------------------------------------------------------|
|---------------------7----------------------3/5-------------------------|
|-----5-5---5--7-8---------------------------------3-3-5-5-8-7-8---------|
|---------5--------5-----5-5-5-7-8-3-3-3-3-------3-----------------------|
(2:08)
|------------------------------------------------------------------------|
|---------7---------5----------------------------------------------------|
|------------------------------------------------------------------------|
|-----5-5---5-5-3-3---3-3-3-1-1-1-1-0-0-0-0-3-3-3-3-3-3-3-3-3-3----------|
(2:19) Chorus
|------------------------------------------------------------------------|
|-------------------------------------3/5-3------------------------------|
|-----------3/5-3---------------3/5-3-------7-5--------------------------|
|-----5--3--------0-1-1-0---5-3-----------------8-7-5--------------------|
(2:28)
|------------------------------------------------------------------------|
|------------------------------------------------------------------------|
|-----------3/5-3--------------------------------------------------------|
|--------3--------0-1-1-0---1-1-1-1-1-0-0-0-0-3-3-3-3--------------------|
(2:38)
|------------------------------------------------------------------------|
|-------------------------------------3/5-3------------------------------|
|-----------3/5-3---------------3/5-3-------7-5--------------------------|
|-----5--3--------0-1-1-0---5-3-----------------8-7-5--------------------|
(2:48)
|------------------------------------------------------------------------|
|------------------------------------------------------------------------|
|-----------3/5-3--------------------------------------------------------|
|--------3--------0-1-1-0---1-1-1-1-1-0-0-0-0-3-3-3-3--------------------|
(2:58) Outro
|------------------------------------------------------------------------|
|--3-----3---------------------------------------------------------------|
|----3-3-----------------------------------------------------------------|
|------------0--0--0--0--0--0--0--0--0--0--0--0--0--0--0--0--0--0--0--0--|
(3:22)
|------------------------------------------------------------------------|
|------------------------------------------------------------------------|
|------------------------------------------------------------------------|
|--1--1--1--1--1--1--1--1--1--1--0---------------------------------------|
tabbed by a.g.
Comments