Incubus - Sick Sad Little World Solo Chords & Tabs

 

Sick Sad Little World Solo Chords & Tabs

Incubus Chords & Tabs

Version: 1 Type: Tab 0 ratings
1 star 2 stars 3 stars 4 stars 5 stars
comments

Sick Sad Little World Solo Tab

   
Solo to "Sick, sad, little world"
By Incubus
A Crow Left of the Murder

The last guy who tabbed this excellent song did an excellent job with everything, but the solo was a little off.  I watched the performance of this song on www.enjoyincubus.com, and got some of it, and the rest of it sounds pretty accurate.
For this solo, Mike has a sort of "aquatic" effect.  You can imitate it by using a slight phase, with a little bit of chorus and a little bit of delay, but make sure everything is sort of quiet.

~- pinch harmonic

E-----------------------------------------------------------------------------------------------------------------------------------------------------------
B-
G---2/4------4-4/6------6--8--6--8--6--8-6--8-6-8-6-8-9-----9----------------------8/11/8-----8/11/8----6/11/6----------------------------------
D-4-----------------------------------------------------------------9---9---------------------------------------------------------------11/9--9/7--6-7-6h7p6
A-
E-

E-------------------------------------12-12------12----------------------------------------------------------------------------------------------------------------------------
B-------------------------------------------------------------------14-----------12-------------------------------------------9-------------------------------------------9-10
G---------------------------------------------13-------13--11------------------------------13--11h13p11/9--11-11-----6/8--8/9-9/6---8-6-8/9-6---8-9-------
D-2/4-----2/4---4/6--------------------------------------------------11/13------11/13------------------------------------------------------------------------------------
A-----------------------7----------------------------------------------------------------------------------------------------------------------------------------------------------
E-----------------------------------------------------------------------------------------------------------------------------------------------------------------------------------

E---------------7/--------------harmonic 12---------12---------------------------------------------------------------------------------------------------------------------
B-12v/----------------------------------------------------------12--------------------------------------------------------------------------------------------------------------
G-11v/-----------------------------------------------------------------------------------------6/9--9/11--11/13-------------------------------------------------------------
D---------------------------------------------------------9-----9-----9-11-9-9-----------9------------------------14-14p13-13h14----------------------------------------
A-------------------------------------------------------------------------------------------------------------------------------------------------------------------------------------
E------------------------------------------------------------------------------------7/9/7------------------------------------------------------------------------------------------

E-12~--14~-----------------------------------------------------------------------14--12--14-12-14-12---21~v-----------------------------------------------------------
B----------------------12~---14~v--12--12--14--12----14--14b---12-----------------------------------------------------------------------------------------------------
G--------------13~------------------------------------------------------------------------------------------------------------------------------------------------------------------
D--------------------------------------------------------------------------------------------------------------------------------------------------------------------------------------
A--------------------------------------------------------------------------------------------------------------------------------------------------------------------------------------
E--------------------------------------------------------------------------------------------------------------------------------------------------------------------------------------
[ Tab from: http://www.guitartabs.cc/tabs/i/incubus/sick_sad_little_world_solo_tab.html ]
E-14--12------------------------------------------------------------------------------------------------------9------------------------------------------------------------------------
B-----------14--12----------------------12-14-12---------14-12-------------5------5-------5---------x-------------------------------------------------------------------------
G---------------------11--11b--9-11-----------------13----------------------6--6---6--6---6--6-------6-------------------------------------------------------------------------
D----------------------------------------------------------------------------------------5-------5-----------------------------------------------------------------------------------------
A--------------------------------------------------------------------------------------------------------------------------------------------------------------------------------------------
E------------------------------------------------------------------------------------------------------------------------------------------------------------------------------------------

Ok, for this next part, you need to use a couple of pedals.  I don't know exactly how Mike does it, but I use a moderately intense wah pedal, a pretty fast echo pedal, and slight distortion.  USE REALLY FAST PICKING ON THIS PART!!!!!!!!

E-9999999999999999999/7777777/121212121212121212--141414141414141414/222/44/22222/4444/7777777
B---------------------------------------------------------------------------------------------
G---------------------------------------------------------------------------------------------
D---------------------------------------------------------------------------------------------
A---------------------------------------------------------------------------------------------
E---------------------------------------------------------------------------------------------

E-121212121212/11-11-11-11-11/99999999999/11-11-11-11-11-11/12121212121212/7777777777---------
B---------------------------------------------------------------------------------------------
G---------------------------------------------------------------------------------------------
D---------------------------------------------------------------------------------------------
A---------------------------------------------------------------------------------------------
E---------------------------------------------------------------------------------------------

E-14-14-14-14-14/--16-16-16-16-16/--17-17-17-17-17-17/--19-19-19-19-19/--21-21-21-21-21-21-21
B---------------------------------------------------------------------------------------------
G---------------------------------------------------------------------------------------------
D---------------------------------------------------------------------------------------------
A---------------------------------------------------------------------------------------------
E---------------------------------------------------------------------------------------------

E-16p12-----------16p12-----------16p12-----------16p12-----------16p12-------------------
B------16p12-16p12-----16p12-16p12-----16p12-16p12-----16p12-16p12-----16p12-16p12--------
G-----------------------------------------------------------------------------------------
D-----------------------------------------------------------------------------------------
A-----------------------------------------------------------------------------------------
E-----------------------------------------------------------------------------------------

E-16p12-----------16p12------------12/16/12/19--19p14--------19p14-------19p14------19p14-----
B------16p12-16p12-----16p12-16p12--------------------17p14--------17p14------17p14------17p14
G---------------------------------------------------------------------------------------------
D---------------------------------------------------------------------------------------------
A---------------------------------------------------------------------------------------------
E---------------------------------------------------------------------------------------------

E-19p14-------19/21-21-21-21-21-21-21-21-21-21
B------17p14----------------------------------
G---------------------------------------------
D---------------------------------------------
A---------------------------------------------
E---------------------------------------------

Well, there is the whole solo.  That is really very close to accurate. I couldn't see the whole thing on the website, but that is really close, it sounds almost exactly like it when I play it this way.  If you have any questions or comments, email me at kage963@hotmail.com.  Later dudes.

Comments