Incubus - Shaft Chords & Tabs

 

Shaft Chords & Tabs

Incubus Chords & Tabs

Version: 1 Type: Tab 0 ratings
1 star 2 stars 3 stars 4 stars 5 stars
comments

Shaft Tab

Song: Shaft
Artist: Incubus
Album: Enjoy Incubus
Submitted By: Scott Aaronson
Uploaded by: Ben Bradley

Tuning: Drop D

Intro/First Verse

(3x)                              (4x)
--------------------------        ---------------------10----  
----------11P7-7-7H9-9----        ----------11P7-7-7H9-------
-7H9-9-9------------------        -7H9-9-9-------------------
--------------------------  then  ---------------------------
--------------------------        ---------------------------
--------------------------        ---------------------------

then  ---------------------
      ---------------------
      -7H9-9-9-xxxxxxxxx---
      ---------------------
      ---------------------
      ---------------------

Chorus-------------------------------------------
-------------------------------------------
-------------------------------------------
-2-2-2333---2-2-2333---2-2-2333--2-2-2333--
-2-2-2333---2-2-2333---2-2-2333--2-2-2333--
-2-2-2333---2-2-2333---2-2-2333--2-2-2333--

[ Tab from: http://www.guitartabs.cc/tabs/i/incubus/shaft_tab.html ]
Second Verse
--------------------------------------
-------------------------9H10---------
-------9H10---9H10-10H11--------------
-2-2----------------------------------
-2-2----------------------------------
-2-2----------------------------------


"Shaft!!!"
-----------------------------------------------
-11H12-12-12--12H13-13-13--11H12-12-12---------
-----------------------------------------------
-----------------------------------------------
-----------------------------------------------
-----------------------------------------------


Solo
-19-----------------------------------------------------------------------
----18--------------------------------------------------------------------
-------16---17-------16-------15----------15----15^-----------------------
---------------16-15----15-14-------15-14----14------------12-13-15-13-12-
-----------------------------------------------------13-14----------------
--------------------------------------------------------------------------

------------------------19--------20-------21--------21-/-24-24-24---------
---------------------------18--------19-------20-----20-/-23-23-23---------
---15-x-15-x-15-16-15---------16--------17-------18--18-/-21-21-21---------
---------------------------------------------------------------------------
---------------------------------------------------------------------------
---------------------------------------------------------------------------



Comments