Incubus - Privilege Chords & Tabs

 

Privilege Chords & Tabs

Incubus Chords & Tabs

Version: 4 Type: Tab 0 ratings
1 star 2 stars 3 stars 4 stars 5 stars
comments

Privilege Tab

#----------------------------------PLEASE NOTE--------------------------------#
#This file is the author's own work and represents their interpretation of the#
#song. You may only use this file for private study, scholarship, or research.#
#-----------------------------------------------------------------------------#
#-- File created with Instab - http://www.pconline.com/~smcarey/instab.html --#
#-----------------------------------------------------------------------------#

Author/Artist: Incubus
Title: Privilege
Album: Make Yourself
Transcribed by: Josh Lupien
Email: krazyklown33@hotmail.com

Tuning: Standard

Song Progression:
Intro (1x)
Pre-Verse (2x)
Verse (4x)
Pre-Chorus (1x)
Chorus (2x)
Intro (play only first half, then end as you would if you were playing the pre-verse)
Verse (4x)
Pre-Chorus (1x)
Chorus (2x)
Pre-Chorus (1x)
Chorus (4x)

------------------------------------------------------------------------------
------------------------------------------------------7-7-7-7-----------------
---------6------------------------------6-------------x-x-x-x-----------------
-7-5-x-x-6-x-x-7-5-x-x-4/-5-x-x-7-5-x-x-6-x-x-7-5-x-x-4-4-4-4-----------------
-7-5-x-x-4-x-x-7-5-x-x-4/-5-x-x-7-5-x-x-4-x-x-7-5-x-x-------------------------
-5-3-x-x---x-x-5-3-x-x-2/-3-x-x-5-3-x-x---x-x-5-3-x-x-------------------------
 Intro (clean)                                                                

--------------------------------------------------------x--x-x----------------
--------------------------------------------------------x--x-x----------------
---------6------------------------------6---------------x--x-x----------------
-7-5-x-x-6-x-x-7-5-x-x-4/-5-x-x-7-5-x-x-6-x-x-7-5-x-x-x-----------------------
-7-5-x-x-4-x-x-7-5-x-x-4/-5-x-x-7-5-x-x-4-x-x-7-5-x-x-x-----------------------
-5-3-x-x---x-x-5-3-x-x-2/-3-x-x-5-3-x-x---x-x-5-3-x-x-x-----------------------
 Continued...                                                                 

------------------------------------------------------------------------------
----------------------------------------------------7-------------------------
---------6---------------------------6--------------x-------------------------
-7-5--5--6-7-7-5--x-4/-5-x-x-7-5--5--6-7-7--x-x-x-x-4-------------------------
-7-5--5--4-7-7-5--x-4/-5-x-x-7-5--5--4-7-7--x-x-x-x---------------------------
-5-3--3----5-5-3--x-2/-3-x-x-5-3--3----5-5--x-x-x-x---------------------------
 Pre-Verse (distortion)                                                       
[ Tab from: http://www.guitartabs.cc/tabs/i/incubus/privilege_tab_ver_4.html ]
----------------------------------------------------------|-------------------
----------------------------------------------------------|-------------------
---------6---------------------------6--------------------|-------------------
-7-5--5--6-7-7-5--x-4/-5-x-x-7-5--5--6-7-7--5-5-x--x-x-x--|-5--5-5-5----------
-7-5--5--4-7-7-5--x-4/-5-x-x-7-5--5--4-7-7--5-5-x--x-x-x--|-5--5-5-5----------
-5-3--3----5-5-3--x-2/-3-x-x-5-3--3----5-5--3-3-x--x-x-x--|-3--3-3-3----------
 Continued...                                                                 

------------------------------------------------------------------------------
------------------------------------------------------------------------------
------------------------------------------------------------------------------
------------------------------------------------------------------------------
------------------------------------------------------------------------------
-5-3---5-5-3--5--5-5-3--5-5-3--5/6--------------------------------------------
 Verse (distortion)                                                           

-9-9-9-9--9-9-9-9--9-9-9-9--9-9-9-9--9-9-9-9--9-9-9-9--9-9-9-9---x--x-x-------
-9-9-9-9--9-9-9-9--9-9-9-9--9-9-9-9--9-9-9-9--9-9-9-9--9-9-9-9---x--x-x-------
-----------------------------------------------------------------x--x-x-------
-----------------------------------------------------------------x--x-x-------
-----------------------------------------------------------------x--x-x-------
-----------------------------------------------------------------x--x-x-------
 Pre-Chorus (distortion)                                                      

-4-4-4-4----------------------------------------------------------------------
-2-2-2-2----------------------------------------------------------------------
------------------------------------------------------------------------------
------------------------------------------------------------------------------
------------------------------------------------------------------------------
------------------------------------------------------------------------------
 Alternately... (with an octave pedal, which is how Mike plays it)            

------------------------------------------------------------------------------
------------------------------------------------------------------------------
--------6-------------------7--7-7-7-7-7--5--5-5------------------------------
-7-5--5-6-7-7-5--x-4/-5-5-x-7--7-7-7-7-7--5--5-5------------------------------
-7-5--5-4-7-7-5--x-4/-5-5-x-5--5-5-5-5-5--3--3-3------------------------------
-5-3--3---5-5-3--x-2/-3-3-x-5--5-5-5-5-5--3--3-3------------------------------
 Chorus (distortion)                                                          

------------------------------------------------------------------------------
------------------------------------------------------------------------------
--------6---------------------------------------------------------------------
-7-5--5-6-7-7-5--x-4/-5-x-x--3--x-x--3--x-x--3--------------------------------
-7-5--5-4-7-7-5--x-4/-5-x-x--3--x-x--3--x-x--3--------------------------------
-5-3--3---5-5-3--x-2/-3-x-x--1--x-x--1--x-x--1--------------------------------
 Continued...


Comments