Incubus - Privilege Chords & Tabs

 

Privilege Chords & Tabs

Incubus Chords & Tabs

Version: 2 Type: Bass Tab 0 ratings
1 star 2 stars 3 stars 4 stars 5 stars
comments

Privilege Bass Tab

   
Artist: Incubus
Album:  Make Yourself
Song:   Privilege
Originaly Tabbed By: Tim Seibal -- sloth5string@usa.net
Corrected by: Christian Bech -- Tycho_bech@hotmail.com
----------------------------------------------------------------

----------------------------------------------------------------
Tuning: E,A,D,G
----------------------------------------------------------------
Key:    /  slide up
    h  hammer on
    p  pull off
       (#)      optional
----------------------------------------------------------------
Intro:

Guitar plays intro once alone. Then bass comes in.

G-----------------------------------------------------
D-----------------------------------------------------
A---------4-------------------------4-----------------
E--5p3--3---5--5p3--3-2h3--3-5p3--3---5--5--0-0-0-0---

G-----------------------------------------------------
D-----------------------------------------------------
A---------4-------------------------4-----------------
E--5p3--3---5--5p3--3-2h3--3-5p3--3---5--5--X-X-------

Verse/Outro:
[ Tab from: http://www.guitartabs.cc/tabs/i/incubus/privilege_btab_ver_2.html ]
G-----------------------------------------------------
D-----------------------------------------------------
A-----------------------------------------------------
E--5p3---5-3---5-5-3---5-3---5/6----------------------

Prechorus:

G-----------------------------------------------------
D-----------------------------------------------------
A-----------------------------------------------------
E--5-5-5-5---5-5-5-5---5-5-5-5---5-5-5-5--------------

Chorus:

G-----------------------------------------------------
D-----------------------------------------------------
A---------4------------------5--5--5--0h3----3--------
E--5p3--3---5--5p3--3-2h3--3--------------------------

G-----------------------------------------------------
D-----------------------------------------------------
A---------4--------------------------------3----------
E--5p3--3---5--5p3--3-2h3--3--1-1-1-(1)1--------------

The bass riffs shown are to be played as follows:
    1. Intro 2x
    2. Verse 4x
    3. Prechorus 2x
    4. Chorus 2x
    5. Verse 4x
    6. Prechorus 2x
    7. Chorus 2x
    8. Verse 4x (over DJ)
    9. Prechorus 2x
       10. Chorus 2x
       11. Outro 4x
Comments