Incubus - Priceless Chords & Tabs

 

Priceless Chords & Tabs

Incubus Chords & Tabs

Version: 2 Type: Bass Tab

Priceless Bass Tab

Band- Incubus
Song- Priceless
Tuning- Normal– EADG

Intro
G-x-x--------------|
D-x-x-------0-2-5--|
A-x-x---3-4--------|
E-x-x--------------|

                       1st Fill   2nd Fill   3rd Fill
G---------------------|-2-------|---------|--------|
D---------------------|---5-----|-0-2-5---|--------|
A-0---3---0-3-3--3-4--|-----4---|---------|--------|
E---2-----------------|---------|---------|--2s5---|

Verse
G----------------------------|
D----------------------------|x8
A-0---3---0-3-3--------------|
E---2-------------2-3-4-3-2--|

Pre-Chorus
G----------------------------------------------------------------------|
D-----------------7-7-77--3-3-33-------------------7-7-77--10-10-1010--|
A-5-5-555-5-5-555-----------------5-5-555------------------------------|
E------------------------------------------5-5-55----------------------|
[ Tab from: http://www.guitartabs.cc/tabs/i/incubus/priceless_btab_ver_2.html ]
Chorus
                      1st Fill  2nd Fill   
G---------------------|-2------|--------|
D---------------------|---5----|-0-2-5--|
A-0---3---0-3-3--3-4--|-----4--|--------|
E---2-----------------|--------|--------|

Verse

Chorus x2

Bridge
   (Optional)
G-------------------|---------------------------|
D-------------------|---------------------------|
A-555555555555-etc.-|----------------------3----|
E-------------------|---555555s1-555555s1-------|

G--------------------------------------|----------------|--------------|
D--------------------------------------|----------------|-7-7-7-5------|
A---------------------------3-3-3-3-3--|-----------3-3--|---------7-5--|
E-5-5-5-5-2-0-2-0---5-5-5-5------------|-5-5-2-5-2------|--------------|

Hard Bit
G----------------------------------------------------------------|
D-----------5~---2-4-4-2-2------------5~--2-4-4-2-2-2-4-2-4-2-4--|x2
A-0-0-0-3-0-3~-------------0~-----0---3~-------------------------|
E-----------------------------2-2---2----------------------------|