Incubus - Pistola Chords & Tabs

 

Pistola Chords & Tabs

Incubus Chords & Tabs

Version: 3 Type: Tab 0 ratings
1 star 2 stars 3 stars 4 stars 5 stars
comments

Pistola Tab

   
Author: Incubus
Title: Pistola
Album: A Crow Left of the Murder
Tabbed by: Rob Joyce
Email: rob_joyce@hotmail.com
Tabbed: 19/1/04

Standard Tuning.


Verse
    
e|-----------------------------------------|-----------------------------------------|
B|-----------------------------------------|-----------------------------------------|
G|-----13--------13--------13---------13---|-----13--------13--------13---------13---|
D|-----------------------------------------|-----------------------------------------|\
A|---11--------11--11----------------------|---11--------11--11----------------------| \
E|-0-----12-----------10------10-11-----11-|-0-----12-----------10------10-11-----11-|  \
											 \__ x2
											 /
e|-----------------------------------------|-----------------------------------------|  /
B|-----------------------------------------|-----------------------------------------| /
G|-----13--------13--------13---------13---|-----13--------13--------13--------13----|/
D|-----------------------------------------|-----------------------------------------|
A|---11--------11--11----------------------|---11--------11--11------------9-----9---|
E|-0-----12-----------10------10-11-----11-|-0-----12-----------10------10-----------|

    
e|-------------------------------------|-------------------------------------|
B|-----14-------14-------14-------14---|-----14-------14-------14-------14---|
G|-------------------------------------|-------------------------------------|
D|---11-------11--11-------------------|---11-------11--11-------------------|
A|-0-----12---------11-----11-9------9-|-0-----12---------11-----11-9------9-|
E|-------------------------------------|-------------------------------------|

[ Tab from: http://www.guitartabs.cc/tabs/i/incubus/pistola_tab_ver_3.html ]
e|-----------------------------------------|-----------------------------------------|
B|-----------------------------------------|-----------------------------------------|
G|-----13--------13--------13---------13---|-----13--------13--------13--------13----|
D|-----------------------------------------|-----------------------------------------|
A|---11--------11--11----------------------|---11--------11--11------------9-----9---|
E|-0-----12-----------10------10-11-----11-|-0-----12-----------10------10-----------|


Chorus

e|-------------------------------------------------|
B|-------------------------------------------------|
G|-10--x-10x-1010--x-10x-1010--x-106-x6x66-x1-11-1-|
D|-11--x-11x-1111--x-11x-1111--x-117-x7x77-x2-22-2-| x4
A|-11--x-11x-1111--x-11x-1111--x-117-x7x77-x2-22-2-|
E|-9---x-9-x-9-9---x-9-x-9-9---x-9-5-x5x55-x0-00-0-|


Bridge (played after second chorus)

e|-----------------------------------|
B|-----------------------------------|
G|-3---3-xxxx-3---3---3-3----333-333-|
D|-2---2-xxxx-2---2---2-2----222-222-|
A|-----------------------------------|
E|-----------------------------------|

    
Interlude

e|-----------------------|-----------------------------|
B|-4-----2---------4---4-|-4-----2---------------------|
G|-4-----2---------4---4-|-4-----2---------------------|
D|-4-----2---------4---4-|-4-----2---------4-----------|  x4
A|---2-2-0---------2---2-|---2-2-0---------------------|
E|-----------4-2-0-------|-----------4-2-0---2-0-2-0-0-|

Then play...

e|-11-11-11-11-11-11-11-11-11-11-11-11-11-11-11-11-11-11-11-11-11-11-11-11-12-12-12-12-|
B|-10-10-10-10-10-10-10-10-10-10-10-10-10-10-10-10-10-10-10-10-10-10-10-10-10-10-10-10-|
G|-11-11-11-11-11-11-11-11-11-11-11-11-11-11-11-11-11-11-11-11-11-11-11-11-11-11-11-11-|
D|-------------------------------------------------------------------------------------| x4
A|-------------------------------------------------------------------------------------|
E|-------------------------------------------------------------------------------------|

Now play bridge x4 followed by the first part of the verse (x2) then into a chorus.
Finally fade out strumming this chord...
    
e|-0---|
B|-0---|
G|-1---|
D|-2---|
A|-2---|
E|-0---|
Comments