Incubus - Pardon Me Chords & Tabs

 

Pardon Me Chords & Tabs

Incubus Chords & Tabs

Version: 12 Type: Tab 0 ratings
1 star 2 stars 3 stars 4 stars 5 stars
comments

Pardon Me Tab

Song: Pardon Me
Band: Incubus
Album: Make Yourself
Tunning: Drop D (DADGBe)
Tabbed by: simpleppl@hotmail.com

-------------------------------------
| . - echo                          |
| ^ - start volume down and turn up |
-------------------------------------

  Intro
E|----------------------
B|------------------^0--
G|^4---^4---^4---^4--4--
D|-2----2----2----2--2--
A|-4----0----4----0-----
D|----------------------  4x


E|------------------------------------------
B|------------------------------------------
G|-6-----2---6-----2----6-----2--6---9------
D|-6-----2---6-----2-2--6-----2--6---9-9-7--
A|-4-----0---4-----0-2--4-----0--4---7-9-7--
D|-------------------2-----------------9-7--


  Verse
E|---------0..------------0..-------------------------|----
B|---------5....----------5....-----------------------|-0--
G|---^8-----------------------------------------------|-2--
D|---^8-------------^7-------------^9-----------------|-2--
A|---^6-------------^7-------------^9-----------------|-0--
D|------------------^5-------------^7-----------------|----
   23....        Territory...   I need you to see...
   Having a...   Lately I've... The planet Earth...

[ Tab from: http://www.guitartabs.cc/tabs/i/incubus/pardon_me_tab_ver_12.html ]
  Chorus
E|------------------------------------------------------------2-----------------------------
B|------------------------------------------------------------2-----------------------------
G|-6-----4--2-------------6-----4--2-------------6-----2--4---4-----6-----2--4--------------
D|-6-----4--2---2-4-2-4-2-6-----4--2---2-4-2-4-2-6-----2--4---4-----6-----2--4---2-4-2-4-2--
A|-4-----2--0---2-4-2-4-2-4-----2--0---2-4-2-4-2-4-----0--2---2-----4-----0--2---2-4-2-4-2--
D|--------------2-4-2-4-2--------------2-4-2-4-2---------------------------------2-4-2-4-2--


  Tag
E|----------------------|-----------------------
B|------------------^0--|-----------------------
G|^4---^4---^4---^4--4--|-^4---^4---^4----4.----
D|-2----2----2----2--2--|--2----2----2----2..---
A|-4----0----4----0-----|--4----0----4----0...--
D|----------------------|-----------------------
                       3x

  End
E|---------------------|------------------------
B|---------------------|------------------------
G|-6-----2---6-----2---|-6---9-------6-----2----
D|-6-----2---6-----2-2-|-6---9-9-7---6-----2-2--
A|-4-----0---4-----0-2-|-4---7-9-7---4-----0-2--
D|-------------------2-|-------9-7-----------2--

Intro     / Chorus
Verse    /  Tag
Chorus  /   Chorus
Verse  /    End
Comments