Incubus - Pardon Me Chords & Tabs

 

Pardon Me Chords & Tabs

Incubus Chords & Tabs

Version: 3 Type: Bass Tab 0 ratings
1 star 2 stars 3 stars 4 stars 5 stars
comments

Pardon Me Bass Tab

Artist - Incubus
Song  (12) Pardon Me
Album  Make Yourself (1999, SONY)
Composer  Dirk Lance	
Tabbed by  Phill Bagnall (enjoi_baggy@hotmail.com)

Intro

G|-----------------------------------------------------|
D|-----------------------------------------------------|
A|-4-----------------------4---------------------------|
E|-------------5-----------------------5-----\12-------|
B|-----------------------------------------------------|

G|-----------------------------------------------------|
D|-----------------------------------------------------|
A|-4-----------------------4-4-4-4-4-4-----------------|
E|-------------5-5-5-5-5---------------5-5-5-5-0~------|
B|-----------------------------------------------------|

G|-----------------------------------------------------|
D|-----------------------------------------------------|
A|-4-4-4-4-4-4-------------4-4-4-4-4-4-----------------|
E|-------------5-5-5-5-5---------------5-5-5-5-0-0-0-0-|
B|-----------------------------------------------------|

G|-----------------------------------------------------|
D|-----------------------------------------------------|
A|-4-4-4-4-4-4-------------4-4-4-4-4-4--4-4-4-7-7------|
E|-------------5-5-5-5-5--------------------------7-5--|
B|-----------------------------------------------------|


Verse 1

G|-----------------------------------------------------|
D|-----------------------------------------------------|
A|-----------------------------------------------------|
E|-4-4---------0-0--------/11-11~-\6/--11-11\----------|
B|-----------------------------------------------------|

G|-------------------------------------------------------|
D|-------------------------------------------------------|
A|-------------------------------------------------------|
E|-9-9---------7-7---2-2---10-10~-\3/--10-10-10h12h10-10-|
B|-------------------------------------------------------|

G|-----------------------------------------------------|
D|-----------------------------------------------------|
A|-------------------------------------------11-12-----|
E|-9-9---------4-4---------12-12~-\6/--12-12-----------|
B|-----------------------------------------------------|

G|-------------------------------------------------------|
D|-------------------------------------------------------|
A|-------------------------------------------------------|
E|-11-11-------7-7---------5-5-5-5-5-5-5-5-5-5-5-5-5-5-5-| 
B|-------------------------------------------------------|


Chorus 1

G|-----------------------------------------------------|
D|-----------------------------------------------------|
A|-----------------------------------------------------|
E|-9-9-9-9-9---7-7-7-7-7--5-5-5-5-5--0h2-0-0--0h2-0-0--|
B|-----------------------------------------------------|

G|-----------------------------------------------------|
D|-----------------------------------------------------|
A|-----------------------------------------------------|
E|-9-9-9-9-9---7-7-7-7-7--5-5-5-5-5--0h2-0-0--0h2-0-0--|
B|-----------------------------------------------------|

G|-----------------------------------------------------|
D|-----------------------------------------------------|
A|-----------------------------------7-7-7-6-----------|
E|-9-9-9-9-9---5-5-5-5--7-7-7-7-7-7------------5h7-----|
B|-----------------------------------------------------|

G|-----------------------------------------------------|
D|-----------------------------------------------------|
A|-----------------------------------------------------|
E|-9-9-9-9-9---5-5-5-5-5--7-7-7-7-7--0h2-0-0-0h2-0-0---|
B|-----------------------------------------------------|


Pre Verse

G|-----------------------------|
D|-----------------------------|
A|-----------------------------|
E|-44----0-0-----4-4-----0-0-|
B|-----------------------------|


Verse 2

G|-----------------------------------------------------|
D|-----------------------------------------------------|
A|-----------------------------------------------------|
E|-4-4---------0-0--------/11-11~-\6/--11-11\----------|
B|-----------------------------------------------------|
[ Tab from: http://www.guitartabs.cc/tabs/i/incubus/pardon_me_btab_ver_3.html ]
G|-------------------------------------------------------|
D|-------------------------------------------------------|
A|-------------------------------------------------------|
E|-9-9---------7-7---2-2---10-10~-\3/--10-10-10h12h10-10-|
B|-------------------------------------------------------|

G|-----------------------------------------------------|
D|-----------------------------------------------------|
A|-------------------------------------------11-12-----|
E|-9-9---------4-4---------12-12~-\6/--12-12-----------|
B|-----------------------------------------------------|

G|-------------------------------------------------------|
D|-------------------------------------------------------|
A|-------------------------------------------------------|
E|-11-11-------7-7---------5-5-5-5-5-5-5-5-5-5-5-5-5-5-5-| 
B|-------------------------------------------------------|


Chorus 2

G|-----------------------------------------------------|
D|-----------------------------------------------------|
A|-----------------------------------------------------|
E|-9-9-9-9-9---7-7-7-7-7--5-5-5-5-5--0h2-0-0--0h2-0-0--|
B|-----------------------------------------------------|

G|-----------------------------------------------------|
D|-----------------------------------------------------|
A|-----------------------------------------------------|
E|-9-9-9-9-9---7-7-7-7-7--5-5-5-5-5--0h2-0-0--0h2-0-0--|
B|-----------------------------------------------------|

G|-----------------------------------------------------|
D|-----------------------------------------------------|
A|-----------------------------------7-7-7-6-7h6------|
E|-9-9-9-9-9---5-5-5-5--7-7-7-7-7-7--------------------|
B|-----------------------------------------------------|

G|-----------------------------------------------------|
D|-----------------------------------------------------|
A|-----------------------------------------------------|
E|-9-9-9-9-9---5-5-5-5-5--7-7-7-7-7--0h2-0-0-0h2-0-0---|
B|-----------------------------------------------------|


Interlude

G|--------------|
D|--------------|
A|--------------|
E|--------------|
B|-14-14-14-14\-|

G|-----------------------------------------------------|
D|-----------------------------------------------------|
A|-4-----------------------4---------------------------|
E|-------------5-----------------------5-----\12-------|
B|-----------------------------------------------------|

G|-----------------------------------------------------|
D|-----------------------------------------------------|
A|-4-4-4-4-4-4-------------4-4-4-4-4-4-----------------|
E|-------------5-5-5-5-5---------------5---------------|
B|-----------------------------------------------------|


Chorus 3

G|-----------------------------------------------------|
D|-----------------------------------------------------|
A|-----------------------------------------------------|
E|-9-9-9-9-9---7-7-7-7-7--5-5-5-5-5--0h2-0-0--0h2-0-0--|
B|-----------------------------------------------------|

G|-----------------------------------------------------|
D|-----------------------------------------------------|
A|-----------------------------------------------------|
E|-9-9-9-9-9---7-7-7-7-7--5-5-5-5-5--0h2-0-0--0h2-0-0--|
B|-----------------------------------------------------|

G|-----------------------------------------------------|
D|-----------------------------------------------------|
A|-----------------------------------7-7-7-6-7h6------|
E|-9-9-9-9-9---5-5-5-5--7-7-7-7-7-7--------------------|
B|-----------------------------------------------------|

G|-----------------------------------------------------|
D|-----------------------------------------------------|
A|-----------------------------------------------------|
E|-9-9-9-9-9---5-5-5-5-5--7-7-7-7-7--0h2-0-0-0h2-0-0---|
B|-----------------------------------------------------|


Outro

G|-----------------------------------------------------|
D|-----------------------------------------------------|
A|-4-4-4-4-4-4-------------4-4-4-4-4-4-----------------|
E|-------------5-5-5-5-5---------------5-5-5-5-0~------|
B|-----------------------------------------------------|

G|---------------------------------|
D|---------------------------------|
A|-4-4-4-4-4-4-4--7-7-7------------|
E|----------------------9-9--5-5-5-|
B|---------------------------------|

G|----------------------|
D|----------------------|
A|-4-4-4-4-4-4----------|
E|-------------5-5-5-0~-|
B|----------------------|
Comments