Incubus - Pardon Me (acoustic) Chords & Tabs

 

Pardon Me (acoustic) Chords & Tabs

Incubus Chords & Tabs

Version: 7 Type: Tab 0 ratings
1 star 2 stars 3 stars 4 stars 5 stars
comments

Pardon Me (acoustic) Tab

Artist: Incubus		
Title: Pardon Me (Acoustic)


By:  tekguy28@hotmail.com


[ Tab from: http://www.guitartabs.cc/tabs/i/incubus/pardon_me_acoustic_tab_ver_7.html ]
e|---------------------------------------------------------|
B|---------0----------------0------------------------------|
G|-----4-----4---------4------4----------------------------|
D|---2---2-----2-----2---2------2--------------------------|
A|-4-------------4-0--------------0------------------------|
E|---------------------------------------------------------|
			         << repeat
e|---------------------------------------------------------|
B|---------0----------------0------------------------------|
G|-----4-----4---------4----4------------------------------|
D|---2---2-----2-----2---2----2----------------------------|
A|-4-------------4-0------------0--------------------------|
E|---------------------------------------------------------|
Comments