Incubus - Pardon Me (acoustic) Chords & Tabs

 

Pardon Me (acoustic) Chords & Tabs

Incubus Chords & Tabs

Version: 4 Type: Tab 0 ratings
1 star 2 stars 3 stars 4 stars 5 stars
comments

Pardon Me (acoustic) Tab

   
#----------------------------------PLEASE NOTE---------------------------------#
#This file is the author's own work and represents their interpretation of the #
#song. You may only use this file for private study, scholarship, or research. #
#------------------------------------------------------------------------------##

BAND: Incubus
SONG: Pardon Me (Acoustic)   [studio version]
ALBUMS: When Incubus Attacks (Vol. 1)   and   Make Yourself (Special Edition, 
Bonus Disk)
GUITAR: 6 String Acoustic, Standard Tuning (EADGBE)
TABBED BY: Otis Beasley 
EMAIL: otisbeasley@hotmail.com


OPEN IN NOTEPAD (WITH WORD WRAP OFF)


This is my first tab, I'm only just 16 (today) and I've only had a guitar for 
two and a bit months, but I'm quite sure this version is as close to perfect as 
you're gonna get (unless they bring out an official one). 

The studio version is quite different and more difficult than the live unplugged 
version. If you don't believe me about this (like the chords in the chorus) - 
then listen to it. I have tabbed out the rhythm perfectly, even the 
improvisations (like extra chords or passing notes) in the verses and choruses. 
You may still want to listen to the recording to work out where the accents are 
(like in the prechoruses and choruses) and just to get the feel of the sing - 
its a lot easier if you've heard it. Any thankyous, corrections or insults to 
my email (above).

By the way, one  "-"  equals a semiquaver and the speed is 138 (crotchets) 
b.p.m. (slightly slower than the original)


INTRO  (0:00)
  Let ring for all of Intro
E|----------------|----------------|----------------|--------0---0-0-|
B|--------0-------|--------0-------|--------0-------|--------0---0-0-|
G|----4-----4-----|----4-----4-----|----4-----4-----|----4-----------|
D|--2---2-----2---|------2-----2---|--2---2-----2---|------2---------|
A|4-------------4-|--4-----------4-|4-------------4-|--4-------------|
E|----------------|5---------------|----------------|0---------------|


E|----------------|----------------|----------------|--------0---0-0-|
B|--------0-------|--------0-------|--------0-------|--------0---0-0-|
G|----4-----4-----|----4-----4-----|----4-----4-----|----4-----------|
D|--2---2-----2---|------2-----2---|--2---2-----2---|------2---------|
A|4-------------4-|--4-----------4-|4-------------4-|--4-------------|
E|----------------|5---------------|----------------|0---------------|


(0:14)

E|4---4-4-4---4-4-|--------0-------|4---4-4-4---4-4-|----------------|
B|4---4-4-4---4-4-|--------0-------|4---4-4-4---4-4-|----------------|
G|6---6-6-6---6-6-|--2-2-2-2-------|6---6-6-6---6-6-|--2-2-2-x---x-x-|
D|6---6-6-6---6-6-|--2-2-2-2---x-x-|6---6-6-6---6-6-|--2-2-2-2---2-2-|
A|4---4-4-4---4-4-|--0-0-0-0---x-x-|4---4-4-4---4-4-|--0-0-0-2---2-2-|
E|4---4-4-4---4-4-|--x-x-x-x---x-x-|4---4-4-4---4-4-|--x-x-x-0---0-0-|


E|4---4-4-4---4-4-|--------0-------|6---6-6-6---6---|----------------|
B|4---4-4-4---4-4-|----0-0-0-------|6---6-6-6---6---|----------------|
G|6---6-6-6---6-6-|--2-2-2-2-------|4---4-4-4---4-x-|9-9-x-7-7-x-x---|
D|6---6-6-6---6-6-|--2-2-2-2---x-x-|4---4-4-4---4-x-|9-9-x-9-9-9-9---|
A|4---4-4-4---4-4-|--0-0-0-0---x-x-|6---6-6-6---6-x-|7-7-x-9-9-7-7---|
E|4---4-4-4---4-4-|--x-x-x-x---x-x-|6---6-6-6---6-x-|7-7-x-7-7-5-5---|


VERSE 1  (0:27)

E|----------------|----------------|----------------|----------------|
B|------7---------|------7---7-7---|----------------|----------------|
G|------4---------|------4---4-4---|------6---------|------7---------|
D|6---------------|------6---6-6-0-|------5---5---5-|------5---5-----|
A|------------0---|7-----7---7-7---|6-----------6---|6-----------6-0-|
E|-------------(7)|----------------|----------------|----------------|


E|----------------|----------------|------0---------|----0-0---0-0---|
B|------0---0-0---|----------------|------0---0---0-|----0-0---0-0---|
G|------8---8-8---|------8---8-8---|------9---------|----9-9---9-9---|
D|------6---6-6---|------9---9-9-0-|------7-----7---|----7-7---7-7---|
A|4-----4---4-4-0-|------9---9-9---|5-----5---------|5---5-5---5-5---|
E|----------------|7-----7---7-7---|----------------|----------------|


E|------0---0-0---|----------------|----------------|----------------|
B|------0---0-0---|------4---4-4---|------9---------|----9-----------|
G|----8-8---8-8---|------4---4-4-0-|------8---8-----|----8-----8-----|
D|--6-------------|------6---6-6---|------9-------9-|----9-------9---|
A|4-------------0-|------6---6-6---|7-----7-----7---|7---7---------0-|
E|----------------|4-----4---4-4---|----------------|----------------|


                                   PRE-CHORUS  (0:52)

E|----------------|------0---0-----|----0-0-0-0-0-0-|0-0-0-0-0-0-0-4-|
B|------7---------|------0---0-----|----0-0-0-0-0-0-|0-0-0-0-0-0-0-4-|
G|------8---------|----4-----------|----2-2-2-2-2-2-|2-2-2-2-2-2-2-6-|
D|------8---------|--4-----------2-|2---2-2-2-2-2-2-|2-2-2-2-2-2-2-6-|
A|6-----6-----6---|2-------------0-|0---0-0-0-0-0-0-|0-0-0-0-0-0-0-4-|
E|----------------|--------------x-|x---------------|--------------4-|


CHORUS  (0:56)     (Those are "elevens", not "ones")
                       |     (U = Upstroke, D =Downstroke - trust me,   
                       |       |  he does that in the unplugged video)
                       |     U D D   
E|--4-4---4---4-4-|--7-7-7-------0-|--0-0---0-------|--------------4-|
B|--4-4---4---4-4-|--7-7-7-------0-|--0-0---0-------|--------------4-|
G|--6-6---6---6-6-|-111111---2-2-2-|--2-2---2-------|--------------6-|
D|--6-6---6---6-6-|--9-9-9---2-2-2-|--2-2---2---2-4-|2-2-2-4-2-2-2-6-|
A|--4-4---4---4-4-|--9-9-9---0-0-0-|--0-0---0---2-4-|2-2-2-4-2-2-2-4-|
E|--4-4---4---4-4-|--7-7-7---x-x-x-|--x-x---x---0-2-|0-0-0-2-0-0-0-4-|


E|--4-4---4---4-4-|--7-7-7-------0-|--0-0---0-------|--------------4-|
B|--4-4---4---4-4-|--7-7-7-------0-|--0-0---0-------|--------------4-|
G|--6-6---6---6-6-|-111111---2-2-2-|--2-2---2-------|--------------6-|
D|--6-6---6---6-6-|--9-9-9---2-2-2-|--2-2---2---2-4-|2-2-2-4-2-2-2-6-|
A|--4-4---4---4-4-|--9-9-9---0-0-0-|--0-0---0---2-4-|2-2-2-4-2-2-2-4-|
E|--4-4---4---4-4-|--7-7-7---x-x-x-|--x-x---x---0-2-|0-0-0-2-0-0-0-4-|


                                                    Let ring
E|--4-4---4---4-4-|----0-----7-7-7-|--7-7---7---7-7-|0-------------4-|
B|--4-4---4---4-4-|----0-----7-7-7-|--7-7---7---7-7-|0-------------4-|
G|--6-6---6---6-6-|--2-2----111111-|-1111--11--1111-|11-1111111111-6-|
D|--6-6---6---6-6-|--2-2-----9-9-9-|--9-9---9---9-9-|9---9-9-9-9-9-6-|
A|--4-4---4---4-4-|--0-0-----9-9-9-|--9-9---9---9-9-|9---9-9-9-9-9-4-|
E|--4-4---4---4-4-|--x-x-----7-7-7-|--7-7---7---7-7-|7---7-7-7-7-7-4-|


E|--4-4---4---4-4-|----0-----7-7-7-|--7-7---7-7-----|----------------|
B|--4-4---4---4-4-|----0-----7-7-7-|--7-7---7-7-----|----------------|
G|--6-6---6---6-6-|--2-2----111111-|-1111--1111-----|----------------|
D|--6-6---6---6-6-|--2-2-----9-9-9-|--9-9---9-9-2-4-|2-2-2-4-2-2-2-2-|
A|--4-4---4---4-4-|--0-0-----9-9-9-|--9-9---9-9-2-4-|2-2-2-4-2-2-2-2-|
E|--4-4---4---4-4-|--x-x-----7-7-7-|--7-7---7-7-0-2-|2-0-0-2-0-0-0-0-|


INTERLUDE  (1:23)

E|x-x-x---x---x---|--------------xx|x-x-x---x---x---|----------------|
B|x-x-x---x---x---|--------------xx|x-x-x---x---x---|----------------|
G|x-x-x---x---x-xx|x-x-x---x---x-xx|x-x-x---x---x-xx|x-x-x---x---x-x-|
D|6-6-x---x---x-22|2-2-x---x---x-66|6-6-x---x---x-22|2-2-x---x---x---|
A|6-6-x---x---x-22|2-2-x---x---x-66|6-6-x---x---x-22|2-2-x---x---x---|
E|4-4-x---x---x-00|0-0-x---x---x-44|4-4-x---x---x-00|0-0-x---x---x---|


VERSE 2  (1:30)

E|----------------|----------------|----------------|----------------|
B|------7---------|------7---7-7-x-|------0---------|------0---------|
G|------4---4---4-|------4---4-4-x-|------6---------|------7---------|
D|6-----------6---|------6---6-6-x-|5-----5---5---5-|------5---5-----|
A|----------------|7-----------7-x-|6-----------6---|6-----6-----6-0-|
E|----------------|----------------|----------------|----------------|

[ Tab from: http://www.guitartabs.cc/tabs/i/incubus/pardon_me_acoustic_tab_ver_4.html ]
E|------0---0-0---|----------0-0---|------0---------|----0-0---0-0---|
B|------0---0-0---|------0---0-0---|------0---0---0-|----0-0---0-0---|
G|------8---8-8---|------8---8-8---|------9---------|----9-9---9-9---|
D|------6---6-6---|------9---9-9-0-|------7-----7---|----7-7---7-7---|
A|4-----4---4-4-0-|------9---9-9---|5-----5---------|5---5-5---5-5---|
E|----------------|7-----7---7-7---|----------------|----------------|


E|------0---0-0---|------4---4-4---|----------------|----------------|
B|------0---0-0---|------4---4-4---|------9---9-----|----9-----9-9---|
G|----8-8---8-8---|------4---4-4-0-|------8---8-----|----8-----8-8---|
D|--6-------------|------6---6-6---|------9---9---9-|----9-----9-9---|
A|4-------------0-|------6---6-6---|7-----7-----x---|7---7---------0-|
E|----------------|4-----4---4-4---|----------------|----------------|


                                   PRE-CHORUS  (1:55)
                         Let ring
E|----------------|------0---0-----|----0-0-0-0-0-0-|0-0-0-0-0-0-0-4-|
B|------7---7-7---|------0---0-----|----0-0-0-0-0-0-|0-0-0-0-0-0-0-4-|
G|------8---8-8---|----4-----------|----2-2-2-2-2-2-|2-2-2-2-2-2-2-6-|
D|------8---8-8---|--4-----------2-|2---2-2-2-2-2-2-|2-2-2-2-2-2-2-6-|
A|6-----6---6-6---|2-------------0-|0---0-0-0-0-0-0-|0-0-0-0-0-0-0-4-|
E|----------------|--------------x-|x---------------|--------------4-|


CHORUS  (1:58)

E|--4-4---4-4-4-4-|--7-7-7-------0-|--0-0---0-0-----|--------------4-|
B|--4-4---4-4-4-4-|--7-7-7-------0-|--0-0---0-0-----|--------------4-|
G|--6-6---6-6-6-6-|-111111---2-2-2-|--2-2---2-2-----|--------------6-|
D|--6-6---6-6-6-6-|--9-9-9---2-2-2-|--2-2---2-2-2-4-|2-2-2-4-2-2-2-6-|
A|--4-4---4-4-4-4-|--9-9-9---0-0-0-|--0-0---0-0-2-4-|2-2-2-4-2-2-2-4-|
E|--4-4---4-4-4-4-|--7-7-7---x-x-x-|--x-x---x-x-0-2-|0-0-0-2-0-0-0-4-|


E|--4-4---4-4-4-4-|--7-7-7---0-0-0-|--0-0---0-0-----|--------------4-|
B|--4-4---4-4-4-4-|--7-7-7---0-0-0-|--0-0---0-0-----|--------------4-|
G|--6-6---6-6-6-6-|-111111---2-2-2-|--2-2---2-2-----|--------------6-|
D|--6-6---6-6-6-6-|--9-9-9---2-2-2-|--2-2---2-2-2-4-|2-2-2-4-2-2-2-6-|
A|--4-4---4-4-4-4-|--9-9-9---0-0-0-|--0-0---0-0-2-4-|2-2-2-4-2-2-2-4-|
E|--4-4---4-4-4-4-|--7-7-7---x-x-x-|--x-x---x-x-0-2-|0-0-0-2-0-0-0-4-|


                                                    Let ring
E|--4-4---4-4-4-4-|----0-----7-7-7-|--7-7---7-7-7-7-|0---0-0-0-----4-|
B|--4-4---4-4-4-4-|----0-----7-7-7-|--7-7---7-7-7-7-|0---0-0-0-----4-|
G|--6-6---6-6-6-6-|--2-2----111111-|-1111--11111111-|11-1111111111-6-|
D|--6-6---6-6-6-6-|--2-2-----9-9-9-|--9-9---9-9-9-9-|9---9-9-9-9-9-6-|
A|--4-4---4-4-4-4-|--0-0-----9-9-9-|--9-9---9-9-9-9-|9---9-9-9-9-9-4-|
E|--4-4---4-4-4-4-|--x-x-----7-7-7-|--7-7---7-7-7-7-|7---7-7-7-7-7-4-|


E|--4-4---4-4-4-4-|----0-----7-7-7-|--7-7---7-7-----|----------------|
B|--4-4---4-4-4-4-|----0-----7-7-7-|--7-7---7-7-----|----------------|
G|--6-6---6-6-6-6-|--2-2----111111-|-1111--1111-----|----------------|
D|--6-6---6-6-6-6-|--2-2-----9-9-9-|--9-9---9-9-2-4-|2-2-2-4-2-2-2-2-|
A|--4-4---4-4-4-4-|--0-0-----9-9-9-|--9-9---9-9-2-4-|2-2-2-4-2-2-2---|
E|--4-4---4-4-4-4-|--x-x-----7-7-7-|--7-7---7-7-0-2-|2-0-0-2-0-0-0---|


INTERLUDE  (2:26)

  Let ring for all of Interlude
E|----------------|----------------|----------------|--------0---0-0-|
B|--------0-------|--------0-------|--------0-------|--------0---0-0-|
G|----4-----4-----|----4-----4-----|----4-----4-----|----4-----------|
D|--2---2-----2---|------2-----2---|--2---2-----2---|------2---------|
A|4-------------4-|--4-----------4-|4-------------4-|--4-------------|
E|----------------|5---------------|----------------|0---------------|


E|----------------|----------------|----------------|--------0---0-0-|
B|--------0-------|--------0-------|--------0-------|--------0---0-0-|
G|----4-----4-----|----4-----4-----|----4-----4-----|----4-----------|
D|--2---2-----2---|------2-----2---|--2---2-----2---|------2---------|
A|4-------------4-|--4-----------4-|4-------------4-|--4-------------|
E|----------------|5---------------|----------------|0---------------|


E|----------------|----------------|----------------|--------0---0-0-|
B|--------0-----0-|--------0-----0-|--------0-------|--------0---0-0-|
G|----4---4-------|----4---4-------|----4-----4-----|----4-----------|
D|--2---2-2---2---|------2-2---2---|--2---2-----2---|------2---------|
A|4---------------|--4-------------|4-------------4-|--4-------------|
E|----------------|5---------------|----------------|0---------------|

                                              (softly)
E|--------0-------|--------0-------|--------0---0---|
B|--------0-------|--------0-------|--------0---0---|
G|----4---4-------|----4---4-------|----4---4---4---|
D|--2---2-2---2---|------2-2---2---|--2---2-2---2---|
A|4-------------4-|--4-----------4-|4---------------|
E|----------------|5---------------|----------------|


PRE-CHORUS  (2:51)

  Let ring
E|----0-------0---|----0---0-----4-|
B|--0---0-0-----0-|--0---0-0-----4-|
G|6---------------|6-------6-0---6-|
D|----------------|----------7-7-6-|
A|----------------|----------0-0-4-|
E|----------------|------------0-4-|


CHORUS  (2:54)

E|--4-4---4-4-4-4-|--7-7-7-------0-|--0-0---0-------|--------------4-|
B|--4-4---4-4-4-4-|--7-7-7-------0-|--0-0---0-------|--------------4-|
G|--6-6---6-6-6-6-|-111111---2-2-2-|--2-2---2-------|--------------6-|
D|--6-6---6-6-6-6-|--9-9-9---2-2-2-|--2-2---2---2-4-|2-2-2-4-2-2-2-6-|
A|--4-4---4-4-4-4-|--9-9-9---0-0-0-|--0-0---0---2-4-|2-2-2-4-2-2-2-4-|
E|--4-4---4-4-4-4-|--7-7-7---x-x-x-|--x-x---x---0-2-|0-0-0-2-0-0-0-4-|


E|--4-4---4-4-4-4-|--7-7-7---0-0-0-|--0-0---0-------|--------------4-|
B|--4-4---4-4-4-4-|--7-7-7---0-0-0-|--0-0---0-------|--------------4-|
G|--6-6---6-6-6-6-|-111111---2-2-2-|--2-2---2-------|--------------6-|
D|--6-6---6-6-6-6-|--9-9-9---2-2-2-|--2-2---2---2-4-|2-2-2-4-2-2-2-6-|
A|--4-4---4-4-4-4-|--9-9-9---0-0-0-|--0-0---0---2-4-|2-2-2-4-2-2-2-4-|
E|--4-4---4-4-4-4-|--7-7-7---x-x-x-|--x-x---x---0-2-|0-0-0-2-0-0-0-4-|


                                                    Let ring
E|--4-4---4-4-4-4-|----0-----7-7-7-|--7-7---7---7-7-|0---0---------4-|
B|--4-4---4-4-4-4-|----0-----7-7-7-|--7-7---7---7-7-|0---0---------4-|
G|--6-6---6-6-6-6-|--2-2----111111-|-1111--11--1111-|11-1111111111-6-|
D|--6-6---6-6-6-6-|--2-2-----9-9-9-|--9-9---9---9-9-|9---9-9-9-9-9-6-|
A|--4-4---4-4-4-4-|--0-0-----9-9-9-|--9-9---9---9-9-|9---9-9-9-9-9-4-|
E|--4-4---4-4-4-4-|--x-x-----7-7-7-|--7-7---7---7-7-|7---7-7-7-7-7-4-|


E|--4-4---4-4-4-4-|----0-----7-7-7-|--7-7---7-7-----|----------------|
B|--4-4---4-4-4-4-|----0-----7-7-7-|--7-7---7-7-----|----------------|
G|--6-6---6-6-6-6-|--2-2----111111-|-1111--1111-----|----------------|
D|--6-6---6-6-6-6-|--2-2-----9-9-9-|--9-9---9-9-2-4-|2-2-2-4-2-2-2-2-|
A|--4-4---4-4-4-4-|--0-0-----9-9-9-|--9-9---9-9-2-4-|2-2-2-4-2-2-2-2-|
E|--4-4---4-4-4-4-|--x-x-----7-7-7-|--7-7---7-7-0-2-|2-0-0-2-0-0-0-0-|


OUTRO  (3:22)

E|4---4-4-4---4-4-|--------0-------|4---4-4-4---4-4-|----------------|
B|4---4-4-4---4-4-|--------0-------|4---4-4-4---4-4-|----------------|
G|6---6-6-6---6-6-|--2-2-2-2-------|6---6-6-6---6-6-|--2-2-2-x---x-x-|
D|6---6-6-6---6-6-|--2-2-2-2---x-x-|6---6-6-6---6-6-|--2-2-2-2---2-2-|
A|4---4-4-4---4-4-|--0-0-0-0---x-x-|4---4-4-4---4-4-|--0-0-0-2---2-2-|
E|4---4-4-4---4-4-|--x-x-x-x---x-x-|4---4-4-4---4-4-|--x-x-x-0---0-0-|

                                                             Let ring
E|4---4-4-4---4-4-|----------------|4---4-4-4---4-4-|----------------|
B|4---4-4-4---4-4-|----------------|4---4-4-4---4-4-|----------------|
G|6---6-6-6---6-6-|9-9-9-----------|6---6-6-6---6-6-|--2-2-2-x-------|
D|6---6-6-6---6-6-|9-9-9-9-9-9-9-9-|6---6-6-6---6-6-|--2-2-2-2-------|
A|4---4-4-4---4-4-|7-7-7-9-9-7-7-7-|4---4-4-4---4-4-|--0-0-0-2-------|
E|4---4-4-4---4-4-|7-7-7-7-7-5-5-5-|4---4-4-4---4-4-|--x-x-x-0-------|



AN ALTERNATIVE:

A different, slightly easier way to play the first bit of the first verse:

E|------2---------|------2---2-2---|----------------|----------------|
B|------0---------|------0---0-0---|------2---------|------2---------|
G|1---------------|------1---1-1---|------0---0---0-|------0---0-----|
D|----------------|2-------------0-|1-----------1---|1-----------1---|
A|------------0H1-|----------------|----------------|--------------0-|
E|-------------|--|----------------|----------------|----------------|
               |
       Hammer-on optional

I only tabbed it differently in the main tab because Mike Einziger plays
it like that in the unplugged video, and because I play it like that.
Comments