Incubus - Pantomime Chords & Tabs

 

Pantomime Chords & Tabs

Incubus Chords & Tabs

Version: 1 Type: Tab 3 ratings
1 star 2 stars 3 stars 4 stars 5 stars
comments

Pantomime Tab

hey this is an unreleased song by Incubus (except on their
bootleg live albums). Its a great song and even better live. Pretty easy and its in a 
fast 3/4 time.

Artist: Incubus
Title: Pantomime
Tabbed by: adawg046

Brandon Boyd is the only one playing for awhile.

Intro
e:------------|---------------|------------|------------|
B:------------|---------------|------------|------------|
G:------------|---------------|------------|------------|
D:--x---x---x-|--x---x---x-xx-|-6---x-6--xx|-5---x-5--xx|
A:--x---x---x-|--x---x---x-xx-|-6---x-6--xx|-5---x-5--xx|
E:--x---x---x-|--x---x---x-xx-|-4---x-4--xx|-3---x-3--xx|

e:------------|------------|------------|------------|------------|------------|
B:------------|------------|------------|------------|------------|------------|
G:------------|------------|------------|------------|------------|------------|
D:-6---x-6--xx|-5---x-5--xx|-6---x-6--xx|-5---x-5--xx|-6---x-6--xx|-x--x-xx-x--|
A:-6---x-6--xx|-5---x-5--xx|-6---x-6--xx|-5---x-5--xx|-6---x-6--xx|-x--x-xx-x--|
E:-4---x-4--xx|-3---x-3--xx|-4---x-4--xx|-3---x-3--xx|-4---x-4--xx|-x--x-xx-x--|

Verse
e:------------|------------|------------|------------|
B:------------|------------|------------|------------|
G:------------|------------|------------|------------|
D:-6---x-6--xx|-5---x-5--xx|-6---x-6--xx|-3---3---3--|  6x
A:-6---x-6--xx|-5---x-5--xx|-6---x-6--xx|-3---3---3--|
E:-4---x-4--xx|-3---x-3--xx|-4---x-4--xx|-1---1---1--|

Pre-chorus
e:------------|------------|------------|------------|------------|------------|------------|------------|
B:------------|------------|------------|------------|------------|------------|------------|------------|
G:------------|------------|------------|------------|------------|------------|------------|------------|
D:-6---x-6--xx|-5---x-5--xx|-6---x-6--xx|-5---x-5--xx|-6---x-6--xx|-5---x-5--xx|-6---x-6--xx|-x--x-xx-x--|
A:-6---x-6--xx|-5---x-5--xx|-6---x-6--xx|-5---x-5--xx|-6---x-6--xx|-5---x-5--xx|-6---x-6--xx|-x--x-xx-x--|
E:-4---x-4--xx|-3---x-3--xx|-4---x-4--xx|-3---x-3--xx|-4---x-4--xx|-3---x-3--xx|-4---x-4--xx|-x--x-xx-x--|

Chorus
e:--6---|     --4---|  	
B:--6---|     --4---|  	
G:--7---|     --5---| 	each of these chords are four measures long
D:--8---|     --6---|   and those 8 measures are played twice.
A:--8---|     --6---|
E:--6---|     --4---|

if you have heard this song you might know the strumming pattern and
if not make something up or find the song somewhere or on the band website.

e:------------|------------|------------|------------|
B:------------|------------|------------|------------|
G:------------|------------|------------|------------|
D:-6---x-6--xx|-5---x-5--xx|-6---x-6--xx|-3---3---3--|
A:-6---x-6--xx|-5---x-5--xx|-6---x-6--xx|-3---3---3--|
E:-4---x-4--xx|-3---x-3--xx|-4---x-4--xx|-1---1---1--|
[ Tab from: http://www.guitartabs.cc/tabs/i/incubus/pantomime_tab.html ]
e:------------|------------|------------|------------|
B:------------|------------|------------|------------|
G:------------|------------|------------|------------|
D:-6---x-6--xx|-5---x-5--xx|-6---x-6--xx|-x--x-xx-x--|
A:-6---x-6--xx|-5---x-5--xx|-6---x-6--xx|-x--x-xx-x--|
E:-4---x-4--xx|-3---x-3--xx|-4---x-4--xx|-x--x-xx-x--|

Verse
e:------------|------------|------------|------------|
B:------------|------------|------------|------------|
G:------------|------------|------------|------------|
D:-6---x-6--xx|-5---x-5--xx|-6---x-6--xx|-3---3---3--|  4x
A:-6---x-6--xx|-5---x-5--xx|-6---x-6--xx|-3---3---3--|
E:-4---x-4--xx|-3---x-3--xx|-4---x-4--xx|-1---1---1--|

Pre-chorus
e:------------|------------|------------|------------|------------|------------|------------|------------|
B:------------|------------|------------|------------|------------|------------|------------|------------|
G:------------|------------|------------|------------|------------|------------|------------|------------|
D:-6---x-6--xx|-5---x-5--xx|-6---x-6--xx|-5---x-5--xx|-6---x-6--xx|-5---x-5--xx|-6---x-6--xx|-x--x-xx-x--|
A:-6---x-6--xx|-5---x-5--xx|-6---x-6--xx|-5---x-5--xx|-6---x-6--xx|-5---x-5--xx|-6---x-6--xx|-x--x-xx-x--|
E:-4---x-4--xx|-3---x-3--xx|-4---x-4--xx|-3---x-3--xx|-4---x-4--xx|-3---x-3--xx|-4---x-4--xx|-x--x-xx-x--|

Chorus
e:--6---|     --4---|  	
B:--6---|     --4---|  	
G:--7---|     --5---| 	each of these chords are four measures long
D:--8---|     --6---|   and those 8 measures are played twice.
A:--8---|     --6---|
E:--6---|     --4---|

then there is a rest with some singing over it and Ben Kenny plays very, very soft.

e:------------|------------|------------|------------|
B:------------|------------|------------|------------|
G:------------|------------|------------|------------|
D:-6---x-6--xx|-5---x-5--xx|-6---x-6--xx|-3---3---3--|
A:-6---x-6--xx|-5---x-5--xx|-6---x-6--xx|-3---3---3--|
E:-4---x-4--xx|-3---x-3--xx|-4---x-4--xx|-1---1---1--|

this is palm muted and a crescendo.

e:------------|------------|------------|--------------|
B:------------|------------|------------|--------------|
G:------------|------------|------------|--------------|
D:-6---x-6--xx/-8---x-8--xx/-10--x10--xx/-12---x-12--xx|
A:-6---x-6--xx/-8---x-8--xx/-10--x10--xx/-12---x-12--xx|
E:-4---x-4--xx/-6---x-6--xx/--8--x-8--xx/-10---x-10--xx|

the slashes are slides

this is where the full band comes in. Mike Enzinger is on the other guitar doing some crazy stuff that I
will not even try to tab out.

Chorus
e:--6---|     --4---|  	
B:--6---|     --4---|  	
G:--7---|     --5---| 	each of these chords are four measures long
D:--8---|     --6---|   and those 8 measures are played 4x.
A:--8---|     --6---|
E:--6---|     --4---|

it slows down and these chords are played lightly over the vocals
and then ends with this chord

e:--6---|  	
B:--6---|  	
G:--7---|
D:--8---|
A:--8---|
E:--6---|
Comments