Incubus - Out From Under Chords & Tabs

 

Out From Under Chords & Tabs

Incubus Chords & Tabs

Version: 2 Type: Bass Tab 0 ratings
1 star 2 stars 3 stars 4 stars 5 stars
comments

Out From Under Bass Tab

   
Band: Incubus
Song: Out From Under
Album: Make Yourself
Track#:13
Tabbed by: Loudog (Louis G.) 
Loudog0311@cs.com

Standard Tuning (e,a,d,g) Note: d and g are not used in this song.
I have spent a lot of time working on this tab, and can tell you it is about 99% correct.
The other tab did not sound right at all. Remember to rate my tab. Good luck with this tab.

Opening                      
a|------2-2-3-3-----2-2-3-3|
e|0-0-0--------0-0-0-------|

a|3-3-3----3-3-3-----------------|
e|-----------------3-3-3----3-3-3|

a|------2-2-3-3-----2-2-3-3|
e|0-0-0--------0-0-0-------|

a|2-2-2-2----0-0-0-0----------------------|
e|----------------------3-3-3-3----2-2-2-2|    [Refer to this later as Part B]

Verse
a|---5-5-------5-5-------3-3-------|
e|5------6-6-5----6-6-5-----6-6-5-1|

[With the Verse endings, play the Verse, then add a Verse Ending. Go in order from 
1-4.]

[Note on Verse Ending #3, the e| switches to an a|.]
Verse Endings
1
e|1-1-1---1-1-0---00-|

2
e|1--3-3--3-3-1-0|

3
a|0-1-1---1-3-3| 

4
e|1-1-1---1-1-0--0|

Chorus
a|----5-5------5-5-------------------------3-3-3-3-1-1-0|
e|5------6-6-5-----6-6-5--0h1--0-0h1-0----------------|

Interlude
a|------2-2-3-3------2-2-3-3|
e|0-0-0--------0-0-0---------|


I have spent a lot of time counting and timing the song into the song order. 
This should help beginners a lot and even good players, because this is a hard song.

Song Order and Time

Opening:x1  (0:01- 0:14) 
Verse:x1  (0:15- 0:39)    
Chorus:x4  (0:40- 1:04) 
Verse:x1  (1:05- 1:30)
Chorus:x4  (1:31- 1:54)
Interlude:x9  (1:55- 2:23)
Opening:x2  (2:24- 2:49)      [Special Note: Begin opening with Part B]
Chorus:x4  (2:50- 3:13)
Interlude:x3  (3:14- 3:22)
Part B:x1  (3:23- end)

=====
[ Tab from: http://www.guitartabs.cc/tabs/i/incubus/out_from_under_btab_ver_2.html ]
Tabbed by: koolone
Band:Incubus
CD:Make Yourself
Song: Out from Under
E-Mail: eretor@hotmail.com


This song gets a little confusing.
Numbers wrote close together are played
faster and numbers wrote like X|-X-XX-| are
played like  X  X  X (in sheet music).
             |  |--|
             -------
Listen to the cd and you should get the hang of it.
Don't forget to rate this tab!                

Intro:
a)
G|-----------------|
D|-----------------|
A|------33------33-|
E|-0001----0001----|

B)
G|------------------|
D|------------------|
A|-3333-333---------|
E|----------333-333-|

C)
G|---------------------|
D|---------------------|
A|-2222-0000-----------|
E|-----------3333-2222-|

Verse:
a)
G|-----------------------|
D|-----------------------|
A|--55-1-11-0--55-1-11-0-|
E|-0---------------------|

B)
G|------------------------|
D|------------------------|
A|-33-11------------------|
E|-------1-11-1-11-1-11-1-|

C)
G|----------------------------|
D|----------------------------|
A|-33-11----------------------|
E|-------1-11-1-33-1-33-1-3-1-|

d)
G|------------------------|
D|------------------------|
a|-33-11-0-00-0-11-1-33-3-|
E|------------------------|

Chorus:
a)
G|--------------------|
D|--------------------|
A|---55-11-0--55-11-0-|
E|-0------------------|

B)
G|--------------------|
D|--------------------|
A|------------333-111-|
E|-0-1-00-1-0---------|

Riff1
G|----------|
D|----------|
A|-------33-|
E|-000-1----|

Riff2
G|----------------|
D|----------------|
A|------------3\1-|
E|-0-1-00-1-0-----|

Order:
Intro a,B,a,C         
Verse A,B,A,C,A,D,A,B ------|-(x2)  
Chorus A,B            ------|
Riff1
Intro a,B,a,C (x2)
Riff2
Chorus a,B
Intro a,C
Comments