Incubus - Out From Under Chords & Tabs

 

Out From Under Chords & Tabs

Incubus Chords & Tabs

Version: 1 Type: Bass Tab 0 ratings
1 star 2 stars 3 stars 4 stars 5 stars
comments

Out From Under Bass Tab

   
Tabbed by: koolone
Band:Incubus
CD:Make Yourself
Song: Out from Under
E-Mail: eretor@hotmail.com


This song gets a little confusing.
Numbers wrote close together are played
faster and numbers wrote like X|-X-XX-| are
played like  X  X  X (in sheet music).
             |  |--|
             -------
Listen to the cd and you should get the hang of it.
Don't forget to rate this tab!                

Intro:
A)
G|-----------------|
D|-----------------|
A|------33------33-|
E|-0001----0001----|

B)
G|------------------|
D|------------------|
A|-3333-333---------|
E|----------333-333-|

C)
G|---------------------|
D|---------------------|
A|-2222-0000-----------|
E|-----------3333-2222-|

Verse:
A)
G|-----------------------|
D|-----------------------|
A|--55-1-11-0--55-1-11-0-|
E|-0---------------------|
[ Tab from: http://www.guitartabs.cc/tabs/i/incubus/out_from_under_btab.html ]
B)
G|------------------------|
D|------------------------|
A|-33-11------------------|
E|-------1-11-1-11-1-11-1-|

C)
G|----------------------------|
D|----------------------------|
A|-33-11----------------------|
E|-------1-11-1-33-1-33-1-3-1-|

D)
G|------------------------|
D|------------------------|
A|-33-11-0-00-0-11-1-33-3-|
E|------------------------|

Chorus:
A)
G|--------------------|
D|--------------------|
A|---55-11-0--55-11-0-|
E|-0------------------|

B)
G|--------------------|
D|--------------------|
A|------------333-111-|
E|-0-1-00-1-0---------|

Riff1
G|----------|
D|----------|
A|-------33-|
E|-000-1----|

Riff2
G|----------------|
D|----------------|
A|------------3\1-|
E|-0-1-00-1-0-----|

Order:
Intro A,B,A,C         
Verse A,B,A,C,A,D,A,B ------|-(x2)  
Chorus A,B            ------|
Riff1
Intro A,B,A,C (x2)
Riff2
Chorus A,B
Intro A,C



Comments