Incubus - Nowhere Fast Chords & Tabs

 

Nowhere Fast Chords & Tabs

Incubus Chords & Tabs

Version: 2 Type: Tab 1 rating
1 star 2 stars 3 stars 4 stars 5 stars
comments

Nowhere Fast Tab

Song: Nowhere fast 
Band: Incubus 
Album: make your self 
Tuning: Dropped D (DADGBE) 
tabber: Frantisek Sidelar
e-mail: shid007@seznam.cz
Original tab By: Tim Dobson (spadey) 
         e-mail: CrashedTD@aol.com 
 
There was a strange sitar part, so I've taken a little look on the whole tab and corrected some major mistakes.I hope now it's fine:) 
 
Intro 
~~~~~ 
|----------------------------------| 
|----------------------------------| 
|--0-0-----------------------------| 
|------4-4-0-0---------------------| 
|------------------3---3---8---8---| 
|--------------0-0-3---3---8---8---| 
 
Chorus 
~~~~~~ 
 
|-----------------------------|-----------------------------|-------------------------------|---------------------------------| 
|-----------------------------|-----------------------------|-------------------------------|---------------------------------| 
|-----------------------------|-----------------------------|-------------------------------|---------------------------------| 
|-0--0--0--0--0-3-3-3-3-8-8-8-|-0--0--0--0--0-3-3-3-3-8-8-8-|-x--x-x-0--0-0-0-3-3-3-3-8-8-8-|-0--0--0--0--0-10-10-10-10-3-3-3-| 
|-0--0--0--0--0-3-3-3-3-8-8-8-|-0--0--0--0--0-3-3-3-3-8-8-8-|-x--x-x-0--0-0-0-3-3-3-3-8-8-8-|-0--0--0--0--0-10-10-10-10-3-3-3-| 
|-0--0--0--0--0-3-3-3-3-8-8-8-|-0--0--0--0--0-3-3-3-3-8-8-8-|-x--x-x-0--0-0-0-3-3-3-3-8-8-8-|-0--0--0--0--0-10-10-10-10-3-3-3-| 
 
Verse 
~~~~~ 
|--2-----14-----5---|--2-----14-----5--6--2|-2-----14-----5------|--2-----14-----5--6--2| 
|--2------------5---|--2------------5--6--2|-2------------5---7h8|--2------------5--6--2| 
|--2------------5---|--2------------5--6--2|-2------------5------|--2------------5--6--2| 
|-------------------|----------------------|---------------------|----------------------| --->Bridge
|-------------------|----------------------|---------------------|----------------------| 
|-------------------|----------------------|---------------------|----------------------| 
 
Bridge
~~~~~~
|-3---3---3---3-|
|-3---3---3---3-|
|-2---3---2---3-| ---> chorus
|---------------| 
|---------------|
|---------------|

Sitar part 
~~~~~~~~~~ 
|-----------------------9-------7--------------------------------------------| 
|----------------7--------7-------7-------------5------------------8---------| 
|------------------7--------7-------7------------7---7---------------10------| 
|------5---5/7-------7------------------------7-------7-------10--------10---| 
|----5---5----------------------------------5---5-----------8----8---------8-| 
|--0--------------------------------------5---------------8------------------| 
 
|--------------------------------------------|--------------------------------|
|--------------------------------------------|--------------------------------|
|-/11-11--14-14--11--9-7-6/7-7-6/7-7-8877-7--|-/11-11--14-14--11--9-7---------| 
|-/11-11--14-14--11--9-7-6/7-7-6/7-7-8877-7--|-/11-11--14-14--11--9-7-88888888| --->intro
|--/9--9--12-12---9--7-5-4/5-5-4/5-5-6655-5--|--/9--9--12-12---9--7-5-88888888| 
|---------------------------------------0-0--|------------------------88888888| 
 
Outro 
~~~~~ 
|----------------------------------|              |---|
|----------------------------------|              |---|
|----------------------------------|   ends with  |---|
|--0--0--0--0--0-10-10-10-10-3-3-3-|              |-0-|
|--0--0--0--0--0-10-10-10-10-3-3-3-|              |-0-|
|--0--0--0--0--0-10-10-10-10-3-3-3-|              |-0-|


Hope It's OK :)
[ Tab from: http://www.guitartabs.cc/tabs/i/incubus/nowhere_fast_tab_ver_2.html ]
Comments