Incubus - Nowhere Fast Chords & Tabs

 

Nowhere Fast Chords & Tabs

Incubus Chords & Tabs

Version: 1 Type: Bass Tab 0 ratings
1 star 2 stars 3 stars 4 stars 5 stars
comments

Nowhere Fast Bass Tab

   
Song: Nowhere Fast
Artist: Incubus
Album: Make Yourself
Tabbed by: Jason Young (claypool_rules@hotmail.com) or 
(incubus@tomgreen.com)


h - hammer on
p - pull off
b - bend string up
r - release bend
/ - slide up
\ - slide down
v - vibrato (sometimes written as ~)
t - right hand tap
x - play 'note' with heavy damping

whole note -  w
half note -  h
quarter note -  q
8th note -  e
16th note -  s
32nd note -  t
64th note -  sf



Intro:

	w  8x q q q e e   e e q  e e  q 3x e e q q e e   e e q  e e q   1x
G|------|-----------|----------------|-------------|-----------------|
D|------|-----------|----------------|-------------|-----------------|
A|-REST-|-----------|----------------|-------------|-3-3-3-----------|
E|------|-----------|----------------|-------------|--------1-1-1----|
B|------|-3-3-3-3/6-|-6-6-6--6/11-11-|-3-3-3-3-3-3-|-----------------|


Verse:

	h^q^e e	  h^q^e e  q^e e  q  s  s  s
G|----------|---------|-------------------|
D|----------|---------|-------------------|
A|--------12/17-------|-------19-21/22\21-|
E|-10-------|-------15/3---17-------------|
B|----------|---------|-------------------|


    h^q^e e	  h^q^e e  q  q^e q^e  2x  w      w        w       w
G|----------|---------|-------------|-----|--------|-------|--------|
D|----------|---------|-------------|-----|--------|-------|--------|
A|--------12/17-------|-------------|-----|--------|-------|--------|
E|-10-------|-------15/3------------|--3--/---13---\---3---/---10---|
B|----------|---------|---11--3-----|-----|--------|-------|--------|


Chorus:
[ Tab from: http://www.guitartabs.cc/tabs/i/incubus/nowhere_fast_btab.html ]
   q q q e e   e e q  e e  q 3x e e q q e e   e e q  e e q   1x
G|-----------|----------------|-------------|-----------------|
D|-----------|----------------|-------------|-----------------|
A|-----------|----------------|-------------|-3-3-3-----------|
E|-----------|----------------|-------------|--------1-1-1----|
B|-3-3-3-3/6-|-6-6-6--6/11-11-|-3-3-3-3-3-3-|-----------------|

   q q q e e   e e q  e e  q 3x e e q q e e   e e q  e e q   1x
G|-----------|----------------|-------------|-----------------|
D|-----------|----------------|-------------|-----------------|
A|-----------|----------------|-------------|-3-3-3-----------|
E|-----------|----------------|-------------|--------1-1-1----|
B|-3-3-3-3/6-|-6-6-6--6/11-11-|-3-3-3-3-3-3-|-----------------|

Bridge and/or Solo:

   q e e q^e e      q q q^e e   h h 4x
G|----------------|-----------|------|
D|----------------|-5-4-----4-|------|
A|---5---5---rest-|-----5-----|------|
E|----------------|-----------|-3/6--|
B|-3---3----------|-----------|------|


   e e q e e q   h q q   e e q e e q   q e e h1x
G|-------------|-------|-------------|---------|
D|-------------|-------|-------------|---------|
A|-3h5---3-5---|---3-5-|-3h5---3-5---|---------|
E|-------------|-------|-------------|---------|
B|-----3-----3-|-3-----|-----3-----3-|-3-3-3-3-|

   e e q e e q   h q q   e e q e e q   e e e e e e q 1x
G|-------------|-------|-------------|----------------|
D|-------------|-------|-------------|----------------|
A|-3h5---3-5---|---3-5-|-3h5---3-5---|----------------|
E|-------------|-------|-------------|----------------|
B|-----3-----3-|-3-----|-----3-----3-|-3-3-3-3-3-3-3--|

Thats bassically it just put the parts where they go. remember if you have 
any question please e-mail me and i'll be glad to help.

Comments