Incubus - Nowhere Fast Bridge Chords & Tabs

 

Nowhere Fast Bridge Chords & Tabs

Incubus Chords & Tabs

Version: 2 Type: Tab 0 ratings
1 star 2 stars 3 stars 4 stars 5 stars
comments

Nowhere Fast Bridge Tab

Incubus-Nowhere Fast Solo/Bridge
Make Yourself

Tuning : DADGBE
This is my first tab so yeah, dont kill me if its wrong

e -----------------------10--------9-------9------------------------------------------------|
b -----------------7-------10------10--------------------5-----------------7----------------|
g -------------------7--------11------11--------------------7----------------9--------------|
d ------4--4/5-------7------------------------------7---------7-------9-------9-------------|
a ----5--5-----------------------------------------5---5-------------7---7------7-----------|
d --0--------------------------------------------5------------------7-----------------------|
[ Tab from: http://www.guitartabs.cc/tabs/i/incubus/nowhere_fast_bridge_tab_ver_2.html ]
Repeat
                                                                                   % first ending
e ------------------------------------------------------------------------------------------|
b ------------------------------------------------------------------------------------------|
g ---b11-11--b14--14--11-11----9---6/7---7--6/7---7------------7----------------------------|
d ---b11-11--b14--14--11-11----9---6/7---7--6/7---7----111---7------------------------------|
a ---b9---9---b12--12---9--9-----7---4/5---5--4/5---5----111---5----------------------------|
d -----------------------------------------------------------------111----------------------|


% second ending

e ------------------------------------------------------------------------------------------|
b ------------------------------------------------------------------------------------------|
g -------8-8-8------------------------------------------------------------------------------|
d -------8-8-8----repeat till chorus--------------------------------------------------------|
a -------6-6-6------------------------------------------------------------------------------|
d ------------------------------------------------------------------------------------------|

mike uses a boss digital reverb/delay , boss super phaser, hughes and kettner rotosphere on this song, i 
 the distortion comes from mesa amps, no pedals.

any questions or comments email me at pj_hurley85@hotmail.com
Comments