Incubus - Nice To Know You Chords & Tabs

 

Nice To Know You Chords & Tabs

Incubus Chords & Tabs

Version: 8 Type: Tab 0 ratings
1 star 2 stars 3 stars 4 stars 5 stars
comments

Nice To Know You Tab

Artist: Incubus	
Song: Nice to Know You	
Album: Morning View

This song is in standard tuning. This tab is absolutely correct. 

Intro (volume swells with flanger and delay set for eighth-note regeneration with 
multiple repeats)

E-------------------------------------
B------------12>------12>-------12>---
G--14>-------14>------14>-------14>---
D--16>-------16>------16>-------16>---
A-------------------------------------
E-------------------------------------

Ryth. Fig 1 (dist.)
This riff is used in the chorus and post intro pre-verse thing
E-----------------------------------------------------
B-----------------------------------------------------
G-----------------------------------------------------
D-2-4-4-7-7-7-2-2-4--2-4-4-7-7--7--2-2-4-4-4-4-7-7-7--
A-2-4-4-5-5-5-2-2-4--2-4-4-5-5--5--2-2-4-4-4-4-7-7-7--
E-0-2-2-5-5-5-0-0-2--0-2-2-5-5--5--0-0-2-2-2-2-5-5-5--

Verse (vol. swells and same effects as intro)
[ Tab from: http://www.guitartabs.cc/tabs/i/incubus/nice_to_know_you_tab_ver_8.html ]
E--------------------------------------------------------
B---------------------12>--------------------------------
G-11>-----------------14>-----------14>-------------14>--
D--x------------------16>-----------16>-------------16>--
A--9>----------------------------------------------------
E------pickscrape-----------------------pickscrape-------

Prechorus chords - You figure out rythm (clean)

E--0---0----0----0-------------
B--0---0----0----0-------------
G--2---1----4----3---2--4------
D--2---2----5----4---0--2------
A--0---0----5----4---0--2------
E-----------3----2------0------

Interlude (clean)

strumming patterns not really given, once again you should be able to figure it out 
yourself
E--------------------------------0------
B----------0--0-----------0-0/---0------
G----------0--0-----------0-0/---2------
D-----0----4--2------0----4-2/4--2------repeat as necessary
A-0-3---0--5--3--0-3---0--5-3/5--0------
E---------------------------------------
The next few times you play the interlude, arpegiate the D6add4 chord and add 3 on the 
b string to the cmaj7 chord a couple times.
Comments