Incubus - Nice To Know You Chords & Tabs

 

Nice To Know You Chords & Tabs

Incubus Chords & Tabs

Version: 3 Type: Tab 0 ratings
1 star 2 stars 3 stars 4 stars 5 stars
comments

Nice To Know You Tab

Incubus – Nice To Know You
Tabbed 10/10/02
Email mr_telecaster@hotmail.com

I saw several other versions of this and they were all right but I think 
this is the most practical and best sounding way to play this particular song. 
You have to tune down the low E to a D. Very easy just using your ear.

Intro part 1: (This is normally played by the bass but it sounds just as good)
E|-------------------------------------------|
B|-------------------------------------------|
G|-------------------------------------------|
D|-------------------------------------------|
A|-------------------------------------------|
D|--2-h4-4-0-0--0--2-h4-4—2-h4-4-0-0--0-5\0--| X4
[ Tab from: http://www.guitartabs.cc/tabs/i/incubus/nice_to_know_you_tab_ver_3.html ]
Intro part 2: (this is with 50% overdrive)
E|--------------------------------------------------------|
B|--------------------------------------------------------|
G|--------------------------------------------------------|
D|--2/4-4-0-0--0-0-2/4-4-2/4-4-0-0--0-0-2/4-4-4-4/7--7-7--|
A|--2/4-4-0-0--0-0-2/4-4-2/4-4-0-0--0-0-2/4-4-4-4/7--7-7--|
D|--2/4-4-0-0--0-0-2/4-4-2/4-4-0-0--0-0-2/4-4-4-4/7--7-7--| X4

Then it’s the verse with turntables.

Pre Chorus: (back to clean, u can figure out the strumming pattern)
E|--0------0------0/0------0--|
B|--0------0------0/0------0--|
G|--2------1------1/4------3--|
D|--2------2------2/5------4--|
A|--0------2------2/5------4--|
D|--X------2------2/5------4--| X2

Chorus: (same as intro part 2)
E|--------------------------------------------------------|
B|--------------------------------------------------------|
G|--------------------------------------------------------|
D|--2/4-4-0-0--0-0-2/4-4-2/4-4-0-0--0-0-2/4-4-4-4/7--7-7--|
A|--2/4-4-0-0--0-0-2/4-4-2/4-4-0-0--0-0-2/4-4-4-4/7--7-7--|
D|--2/4-4-0-0--0-0-2/4-4-2/4-4-0-0--0-0-2/4-4-4-4/7--7-7--| X4

Bridge: (back to clean)
E|--\
B|-- \
G|--  I will tab this soon I know it all but its like midnight here
D|--  so I will do it very soon!
A|-- /
D|--/
Comments