Incubus - Nice To Know You Chords & Tabs

 

Nice To Know You Chords & Tabs

Incubus Chords & Tabs

Version: 2 Type: Tab 0 ratings
1 star 2 stars 3 stars 4 stars 5 stars
comments

Nice To Know You Tab

By alex Schieber

S = slide
H = hammer on

Intro and verse

E-----------------5--------------------------------------------------
B-----------------7--------------------------------------------------
G-----------------9--------------------------------------------------
D-----------------7--------------------------------------------------
A--------------------------------------------------------------------
D--------------------------------------------------------------------
	Basically just mess around with this chord with a phaser and
	Flanger and pedals like that.



Pre-Chorus
	Clean tone
	Play with rhythm on cd, these are just the chords
E----0---------0----------0------------0----------------------------
A----0---------0----------0------------2-----------------------------
D----2---------1----------0------------3-----------------------------
G----2---------2----------5------------4-----------------------------
B----0---------2----------5------------4-----------------------------
D--------------2----------5------------------------------------------

[ Tab from: http://www.guitartabs.cc/tabs/i/incubus/nice_to_know_you_tab_ver_2.html ]
Chorus
	With distortion
	Just play with the rhythm on the cd
E--------------------------------------------------------------------
B------------3----3--------------------------------------------------
G------------2----2--------------------------------------------------
D---2---4-4--0----0--------2-------4--4------------------------------
A---2---4-4--0----0--------2-------4--4------------------------------
D---2---4-4--0----0--------2-------4--4------------------------------

E--------------------------------------------------------------------
B------------3----3--------------------------------------------------
G------------2-- -2--------------------------------------------------
D---2---4-4--0----0--------2-------4--4---4--4----7--7---------------
A---2---4-4--0----0--------2-------4--4---4--4----7--7---------------
D---2---4-4--0----0--------2-------4--4---4--4----7--7---------------

Bridge
	Play with rhythm on cd and repeat as many times as necessary 
				Light  strumming
			           ______________
E--------------------------------------------------------------------
B-------------------0-------0---------0----0---0---0-----------------
G---------------0-----------0---------0--- 0---0---0-----------------
D----------4----------------2---------2----2---2---2-----------------
A------5--------------------3---------3----3---3---3-----------------
D--------------------------------------------------------------------

E---------------------------------------------------------------------------
B-------------------0-------0---------0----0---0s0-0------------------------
G---------------0-----------0---------0--- 0---0s0-0---2--------------------
D----------4----------------2---------2----2---2s4-4---2-----------0--------
A------5--------------------3---------3----3---3s5-5---0----0h-3----3-------
D---------------------------------------------------------------------------
Comments