Incubus - Nice To Know You Chords & Tabs

 

Nice To Know You Chords & Tabs

Incubus Chords & Tabs

Version: 10 Type: Tab 0 ratings
1 star 2 stars 3 stars 4 stars 5 stars
comments

Nice To Know You Tab

   
Intro: 

|---7~-----7~---7~---7~---7~---7~---7~---7~-------------|
|--10~----10~--10~--10~--10~--10~--10~--10~-------------|
|--14~----11~--11~--11~--11~--11~--11~--11~-------------|
|-------------------------------------------------------|
|-------------------------------------------------------|
|-------------------------------------------------------|

|---------------------------------------------------------------------|
|---------------------------------------------------------------------|
|-----------7--7---7--------------7--7---7-----------------------2--2-|
|--2--4--4--7--7---7--2--2--4--4--7--7---7-----2--4--4--4--4--4--2--2-|
|--2--4--4--5--5---5--2--2--4--4--5--5---7--2--2--4--4--4--4--4--0--0-|
|--0--2--2--5--5---5--0--0--2--2--5--5---5--0--0--2--2--2--2--2-------|

Do this 4x................


Verse:

(Do this 4x)
|---------7~-----7~-----------|
|--------10~----10~-----------|
|--------14~----11~-----------|
|-----------------------------|
|-----------------------------|
|-----------------------------|

Refrain:

Just strum this.........
   A	Asus2	G6  F#7add11    D5    E5
|---------------0-----0-----------------------------------|
|--2-----0------0-----0-----------------------------------|
|--2-----2------4-----3-------7--7------------------------|
|--2-----2------5-----4-------7--7------------------------|
|--0-----0------5-----4-------5--5--2--2------------------|
|---------------3-----2-------------0--0------------------|

   A	Asus2	G6  F#7add11
|---------------0-----0-----------------------------------|
|--2-----0------0-----0-----------------------------------|
|--2-----2------4-----3-----------------------------------|
|--2-----2------5-----4-----------------------------------|
|--0-----0------5-----4-----------------------------------|
|---------------3-----2-----------------------------------|

Chorus:

|---------------------------------------------------------------------|
|---------------------------------------------------------------------|
|-----------7--7---7--------------7--7---7-----------------------2--2-|
|--2--4--4--7--7---7--2--2--4--4--7--7---7-----2--4--4--4--4--4--2--2-|
|--2--4--4--5--5---5--2--2--4--4--5--5---7--2--2--4--4--4--4--4--0--0-|
|--0--2--2--5--5---5--0--0--2--2--5--5---5--0--0--2--2--2--2--2-------|

Verse 2:
Do stanza chords.

Repeat Refrain:
Repeat Chorus:
[ Tab from: http://www.guitartabs.cc/tabs/i/incubus/nice_to_know_you_tab_ver_10.html ]
Bridge:

|-----------0--0--0--0--0---0--0--0--0--0-----------------------------|
|-----------0--0--0--0--0---0--0--0--0--0-----------------------------|
|-----------0--0--0--0--0---0--0--0--0--0-----------------------------|
|-----------4--4--4--4--2---2--2--2--2--2-----------------------------|
|--0-3-5-0--5--5--5--5--3---3--3--3--3--3-----------------------------|
|---------------------------------------------------------------------|

|----------------------0--0--0--0--0--0--0----------------------------|
|-----------------0----0--0--0--0--0--0--0----------------------------|
|---------------0---0--0--0--0--0--0--0--0---------------2------------|
|-------------4--------2--2--2--2--2--2--2----2/4--4--4--2------------|
|--0-3-5-0--5----------3--3--3--3--3--3--3----3/5--5--5--0------------|
|---------------------------------------------------------------------|

|-----------0--0--0--0--0---0--0--0--0--0--0--0--0--0--0--------------|
|-----------0--0--0--0--0---0--0--0--3--3--3--3--0--0--0--------------|
|-----------0--0--0--0--0---0--0--0--0--0--0--0--0--0--0--------------|
|-----------4--4--4--4--2---2--2--2--2--2--2--2--2--2--2--------------|
|--0-3-5-0--5--5--5--5--3---3--3--3--3--3--3--3--3--3--3--------------|
|---------------------------------------------------------------------|

|----------------------0--0--0--0--0--0--0----------------------------|
|-----------------0----0--0--0--0--0--0--0----------------------------|
|---------------0---0--0--0--0--0--0--0--0---------------2------------|
|-------------4--------2--2--2--2--2--2--2----2/4--4--4--2------------|
|--0-3-5-0--5----------3--3--3--3--3--3--3----3/5--5--5--0------------|
|---------------------------------------------------------------------|
Repeat 2x.

Repeat Chorus.

Outro:

|--------------------------------------------------x------------------|
|--------------------------------------------------x------------------|
|--7--7--7----------------9--9--9--9--9--7--7--7---x------------------|
|--7--7--7--2--4--4--4----9--9--9--9--9--7--7--7---x------------------|
|--5--5--5--2--4--4--4----7--7--7--7--7--5--5--5---x------------------|
|--5--5--5--0--2--2--2----7--7--7--7--7--5--5--5---x------------------|


End.
So thats it!
First time kong magsubmit ng tab!
Kung may mali email nyo na lang ako vinoc_oohlala@yahoo.com (pwede rin i-add sa friendster...)

Hi sa tropa ko dyan sa Nasugbo Batangas at sa banda ko Superknutz!
Rock on mga astig!
Comments