Incubus - Nice To Know You Chords & Tabs

 

Nice To Know You Chords & Tabs

Incubus Chords & Tabs

Version: 3 Type: Bass Tab 0 ratings
1 star 2 stars 3 stars 4 stars 5 stars
comments

Nice To Know You Bass Tab

Incubus
Nice to know you
Marco Rodriguez nobody_loves_me@latinmail.com

= hammer on & pull off  /=slide up \=slide down 


Riff 1 Bajo limpio, con efecto sub-octavo. Tocar 4 veces

----------------------------------------------------------------
----------------------------------------------------------------
----------------------------------------------------------------
-12-14-14--10--10-12-14-14--12-14-14-10--10\--------------------


Riff 2 Bajo limpio con efecto sub-octavo. Tocar 4 veces

----------------------------------------------------------------
----------------------------------------------------------------
---------5-5--5-----------------5-5--5--------------------------
-0--2--2---------0-0-0-2--0-2-2---------0--0-2-2-2--2-2/5--5----


Riff 1 Tocar 4 veces


Riff 3 Bajo limpio

----------------------------------------------------------------
----------------------------------------------------------------
-------------------------5-7------------------------------------
--5---5---5---5----5--7-------(5)-5-5-5--5--5-5---0-2-3--3--3---

[ Tab from: http://www.guitartabs.cc/tabs/i/incubus/nice_to_know_you_btab_ver_3.html ]
----------------------------------------------------------------
----------------------------------------------------------------
-----------------------------5-5-------------------------5--7---
-3--3--3\2--(2)-2-2-2-2-2--0-----0-0-0--5--5-5--5--5---7--------


-------------------------------------------------------------------------
-------------------------------------------------------------------------
-(12)-12-12-12-12-12-12-12\----------------------------------------------
----------------------------0-2--3--3--3--3-3-3--(2)-2-2-2-2-2-2-2-2-2-2-


Riff 2 Tocar una vez
Riff 1 Tocar 3 veces
Riff 3 Tocar una vez

Riff 4 Bajo limpio

----------------------------------------------------------------
----------------------------------------------------------------
---------0-3-5-0--5-5-x-(3)--3-3--3--3-3-x-(3)-3-3-3-5-5-x--(3)-
-0-2-2-2--------------------------------------------------------


----------------------------------------------------------------
----------------------------(7)--7-(7)-7--7---7-----------------
--3--3--3---3---3----3---3--------------------------------------
----------------------------------------------------------------

Riff 3 Tocar una vez
Riff 2 Tocar una vez

Riff 5 Bajo limpio

----------------------------------------------------------------
----------------------------------------------------------------
-------5-5-5----------------5-5-5-----------2-2-2-0--0-0--------
-0-2-2-------0-0-0-2--0-2-2-------0-0-2-2-0---------------------
Comments