Incubus - Nice To Know You Chords & Tabs

 

Nice To Know You Chords & Tabs

Incubus Chords & Tabs

Version: 2 Type: Bass Tab 0 ratings
1 star 2 stars 3 stars 4 stars 5 stars
comments

Nice To Know You Bass Tab

after i figured out the intro and posted it i tabbed the rest of the song so heres my tab for nice to know you from incubus.  their new album is just great and they did a great job on it.  i love it

intro/verse

g:-----------------------------------------------------------------------------------------------------------------------------
d:-----------------------------------------------------------------------------------------------------------------------------
a:-----------------------------------------------------------------------------------------------------------------------------
e:12-14-15-12-10---10---12-14-14---12-14-15-12-10---10\\\\----------------------------------------------

chorus

g:-----------------------------------------------------------------------------------------------------------------------------
d:-----------------------------------------------------------------------------------------------------------------------------
a:-----------5----5-------------------------------5----5--------------------------------------------------------------------
e:0h2-2---------------0h2-2------0h2-2-------------------0h2-2222/5---------------------------------------------

prechorus

g:-----------------------------------------------------------------------------------------------------------------------------
d:-----------------------------------------------------------------------------------------------------------------------------
a:-------------------5h7----------------------------------------------------------------------5-5-7-----------------------
e:5--5--5--5--5----------0h5--5--5--5--5--5--3--3--3--3--3--3--32--2--2--2-2-----------5--5--5--5--5----
[ Tab from: http://www.guitartabs.cc/tabs/i/incubus/nice_to_know_you_btab_ver_2.html ]
g:-----------------------------------------------------------------------------------------------------------------------------
d:-----------------------------------------------------------------------------------------------------------------------------
a:5h7-7/12--12--12--12--12--12--12-------------------------------------------------------------------------------
e:------------------------------------------------3--3--3--3--3--3--32--2--2--2--2-2---------------------------------

bridge

g:-----------------------------------------------------------------------------------------------------------------------------
d:-----------------------------------------------------------------------------------------------------------------------------
a:5--5-5-5--3--3-3-3--3-3-3--3-3-3---5--5-5-5--3--3-3-3--3/5--5-5-5--0------------------------------------
e:-----------------------------------------------------------------------------------------------------------------------------

the outro/chorus is the same as the regular chorus except the last part of it.
this is how is goes

g:-----------------------------------------------------------------------------------------------------------------------------
d:-----------------------------------------------------------------------------------------------------------------------------
a:-----------5---5--------------------------5---5--------------222200--------------------------------------------------
e:0h2-2-------------0h2-2---0h2-2--------------0h2-22-------------------------------------------------------------

it's a pretty cool song to play and it took me a while to get my first tab done.  most of it sounds just like the song but the rhythm of the prechorus and bridge is a little hard to follow.  in the bridge just follow the bass drum.

song layout:
intro 4x
chorus 4x
verse 4x
prechorus 1x
chorus 4x
verse 4x
prechorus 1x
chorus 4x  (the bridge after this chorus cuts in a little early)
bridge 2x
prechorus 1x
chorus 4x

rate it if you like to tell me how i did i know that this is real close to the track
Comments